Oops, an error
Loading. Please wait.

Fireproof tab

version 3
version 3

Whole song

610 views 15 this week
no commentswrite comment
1 2 3 4 5
2 more votes to show rating
add to favorites
×
Save as Personal and add changes to this tab that will be seen only by you. Learn more ›
×
You can save this tab as Personal to edit and correct it or add notes. All changes will be seen only by you. Learn more »
launch autoscroll
font size
0
reset
how to read this tab
guitar tuner
edit
Autoscroll
slow
fast
+/-
esc
set tempo
stop
Did this all by ear using this video: https://www.youtube.com/watch?v=y-7wTEhwQy8
Play along with it to get the timing down!

Please comment if something needs to be changed :)

* * * * * * * *

CAPO 1

h - hammer on
p - pull off
/ - slide

Intro:

e|---------------------------0----------2------------------0----|
B|--------3----------3---------2-----------3-------3---------3--|
G|-----------2-2/4------0h2-------------------2p0-----0h2-------|
D|-0-0-0---------------------------0-0--------------------------|
A|--------------------------------------------------------------|
E|--------------------------------------------------------------|


Verse 1:

"I think I'm gonna lose my mind // Something deep inside me, I can't give up"
e|-------------------------0-----------------------------0---|
B|------3----------3---------2--------3----------3---------2-|
G|---------2-2/4------0h2----------------2-2/4------0h2------|
D|-0-0---------------------------0-0-------------------------|
A|-----------------------------------------------------------|
E|-----------------------------------------------------------|

"I think I'm gonna lose my mind // I roll and I roll 'til I'm out of luck, yeah //
I roll and I roll 'til I'm out of luck"
e|-------------------------0-----------------------------------------------|
B|------3----------3---------2------3-2---------3--------------3-2-------3-|
G|---------2-2/4------0h2-------2-4-------2-2h4------------2-4-----2-2h4---|
D|-0-0-------------------------------------------(2h4-2h0------------------|
A|-------------------------------------------------------2)----------------|
E|-----------------------------------------------optional------------------|


Verse 2:

"I'm feeling something deep inside // Hotter than a jet stream burning up"
e|-------------------------0-----------------------------0---|
B|------3----------3---------2--------3----------3---------2-|
G|---------2-2/4------0h2----------------2-2/4------0h2------|
D|-0-0---------------------------0-0-------------------------|
A|-----------------------------------------------------------|
E|-----------------------------------------------------------|

"I got a feeling deep inside // It's taking, it's taking all I got, yeah //
It's taking, it's taking all I got" 
e|-------------------------0-----------------------------------------------|
B|------3----------3---------2------3-2---------3--------------3-2-------3-|
G|---------2-2/4------0h2-------2-4-------2-2h4------------2-4-----2-2h4---|
D|-0-0-------------------------------------------(2h4-2h0------------------|
A|-------------------------------------------------------2)----------------|
E|-----------------------------------------------optional------------------|


Chorus:

"Cause nobody knows you, baby, the way I do // And nobody loves you, baby, the way I do"
e|------2-------2-----------------------------2-------2-------------------------|
B|-0h3----3--0----3---2--3-2-0-------------0----3--0----3---2--3-2-0------------|
G|-------------------2--------2-0----2-2-------------------2---------2-0----2-2-|
D|--------------------------------4-------------------------------------4-------|
A|------------------------------------------------------------------------------|
E|------------------------------------------------------------------------------|

"It's been so long, it's been so long, maybe you were fireproof // 
Cause nobody saves me, baby, the way you do"
e|----2--------------------------------2-------------------------|
B|-0----3--0--3---0h2-----0h2-------0----3---0--3-0--0h2---------|
G|--------------------2-2-----2-2------------------------2-2-----|
D|-----------------------------------------------------------2p0-|
A|---------------------------------------------------------------|
E|---------------------------------------------------------------|


Verse 3:

"I think I'm gonna win this time // Riding on the wind and I won't give up"
e|-------------------------0-----------------------------0---|
B|------3----------3---------2--------3----------3---------2-|
G|---------2-2/4------0h2----------------2-2/4------0h2------|
D|-0-0---------------------------0-0-------------------------|
A|-----------------------------------------------------------|
E|-----------------------------------------------------------|

"I think I'm gonna win this time // I roll and I roll, 'til I change my luck, yeah //
I roll and I roll, 'til I change my luck"
e|-------------------------0-----------------------------------------------|
B|------3----------3---------2------3-2---------3--------------3-2-------3-|
G|---------2-2/4------0h2-------2-4-------2-2h4------------2-4-----2-2h4---|
D|-0-0-------------------------------------------(2h4-2h0------------------|
A|-------------------------------------------------------2)----------------|
E|-----------------------------------------------optional------------------|


Solo:

e|-0h2-0--0h2----3-2-0--0--0h2---3-2-0---------------------5-7------------------5-7-----------|
B|------3-------------3--3-------------3------------3--3h5---------------3--3h5-----3-2-------|
G|--------------------------------------------2--2h4---------------2--2h4---------------2-0---|
D|----------------------------------------0h2-------------------0h2-------------------------2-|
A|--------------------------------------------------------------------------------------------|
E|--------------------------------------------------------------------------------------------|


Chorus:

"Cause nobody knows you, baby, the way I do // And nobody loves you, baby, the way I do"
e|-7----------2-------------------------2--------2--------------------------|
B|-0-0-----0----3---0h2-----0h2------0----3---0----3---2---3-2-0------------|
G|----0--0--------------2-2-----2-2-------------------2----------2-0----2-2-|
D|-------------------------------------------------------------------4------|
A|--------------------------------------------------------------------------|
E|--------------------------------------------------------------------------|

"It's been so long, it's been so long, we must be fireproof // And nobody saves me, baby, the way you do"
e|-----2--------2--------------------------2------------------------------|
B|--0----3---0----3--0h2------0h2-------0----3---0---3--0--0h2---3p2------|
G|-----------------------2-2------2-2--------------------------------2p0--|
D|----------------------------------------------------------------------2-|
A|------------------------------------------------------------------------|
E|------------------------------------------------------------------------|


(no guitar) "Cause nobody knows you, baby, the way I do // And nobody loves you, baby, the way I do."


"It's been so long, it's been so long, maybe we're fireproof // Cause nobody saves me, baby, the way you do"
e|-------------------5------------------5--7-------2---------------------------2-------------------|
B|------------3---3h5------------3---3h5--------0----3--0h2-------0h2-------0----3---0--3-0---0h2--|
G|----2---2h4-------------2---2h4---------------------------2-2-------2-2--------------------------|
D|-0h2-----------------0h2-------------------------------------------------------------------------|
A|-------------------------------------------------------------------------------------------------|
E|-------------------------------------------------------------------------------------------------|

Outro:

e|---0h2-0----0h2--------------------0------------|
B|-3--------3------3--------3----------2------3-3-|
G|--------------------2-2/4-----0h2---------------|
D|---------------------------------------0-0------|
A|------------------------------------------------|
E|------------------------------------------------|

            
            
Suggest correction
Creating personal tab
Creating personal tab
You can edit any tab online and save it as your Personal.

You can edit, replace or remove any tab part or add personal notes – all changes will be seen only by you.

Personal tabs can be accessed anytime from any device, even offline.
Learn more »
Give kudos to tab author, rate the tab!
1 2 3 4 5
comments
print report bad tab
guest
You may want to rate the tab now too:
select rating
Wanna post a correction for this tab? Suggest correction