Oops, an error
Loading. Please wait.

I Want To Write You A Song tab

version 1
version 1

Whole song

Interactive

35,866 views 138 this week
4 commentsread comments
1 2 3 4 5
x 46
add to favorites
×
Save as Personal and add changes to this tab that will be seen only by you. Learn more ›
×
You can save this tab as Personal to edit and correct it or add notes. All changes will be seen only by you. Learn more »
launch autoscroll
font size
0
reset
how to read this tab
guitar tuner
edit
Autoscroll
slow
fast
+/-
esc
set tempo
stop
Author
Difficulty
intermediate
-------------------------------------------------------------------------------
                I WANT TO WRITE YOU A SONG - One Direction
-------------------------------------------------------------------------------
Tabbed by: brxo
E-mail: bronagh.dowling@hotmail.com

Tuning: EADGBe


[verse]

e|---------------------------------------------------------------------------|
B|--10-----10-----10-----10-----15-----15-----15-----15----------------------|
G|---------------------------------------------------------------------------|
D|---------------------------------------------------------------------------|
A|------8-----8-----8-----8-------13------13------13------13-----------------|
E|---------------------------------------------------------------------------|

e|---------------------------------------------------------------------------|
B|--10-----10-----11-----13------15------15------15------15------------------|
G|---------------------------------------------------------------------------|
D|---------------------------------------------------------------------------|
A|------8-----8-----10-----12------13------13------13------13----------------|
E|---------------------------------------------------------------------------|

e|---------------------------------------------------------------------------|
B|--15------15------13------13-----11-----11-----10-----8--------------------|
G|---------------------------------------------------------------------------|
D|---------------------------------------------------------------------------|
A|-----13------13------12------12------10------10------8-----7---------------|
E|---------------------------------------------------------------------------|

e|---------------------------------------------------------------------------|
B|--6-----6-----6-----6-----3-----3-----5-----5-----6-----6-----6-----6------|
G|---------------------------------------------------------------------------|
D|---------------------------------------------------------------------------|
A|-----5-----5-----5-----5-----1-----1-----3-----3-----8-----8-----8-----8---|
E|---------------------------------------------------------------------------|


[chorus] (maybe):

e|---------------------------------------------------------------------------|
B|--3-----3-----1-----1------5-----5-----6-----6-----------------------------|
G|---------------------------------------------------------------------------|
D|---------------------------------------------------------------------------|
A|-----1-----1-----0-----0------3-----3-----5-----5--------------------------|
E|---------------------------------------------------------------------------|

e|---------------------------------------------------------------------------|
B|--3-----3-----1-----1------5-----5-----5-----5-----------------------------|
G|---------------------------------------------------------------------------|
D|---------------------------------------------------------------------------|
A|-----1-----1-----0-----0------3-----3-----3-----3--------------------------|
E|---------------------------------------------------------------------------|

e|---------------------------------------------------------------------------|
B|--3-----3-----1-----1------5-----5-----6-----6-----------------------------|
G|---------------------------------------------------------------------------|
D|---------------------------------------------------------------------------|
A|-----1-----1-----0-----0------3-----3-----5-----5--------------------------|
E|---------------------------------------------------------------------------|

e|---------------------------------------------------------------------------|
B|--3-----3-----1-----1------5-----5-----5-----5-----------------------------|
G|---------------------------------------------------------------------------|
D|---------------------------------------------------------------------------|
A|-----1-----1-----0-----0------3-----3-----3-----3--------------------------|
E|---------------------------------------------------------------------------|


and at the end of the 2nd chorus, instead of that last line i think its like:

e|---------------------------------------------------------------------------|
B|--3-----3-----1-----1------------------------------------------------------|
G|---------------------------5----5---------3---------------------------------|
D|---------------------------------------------------------------------------|
A|-----1-----1-----0-----0------3-----3-----1--------------------------------|
E|---------------------------------------------------------------------------|

            
            
Suggest correction
Creating personal tab
Creating personal tab
You can edit any tab online and save it as your Personal.

You can edit, replace or remove any tab part or add personal notes – all changes will be seen only by you.

Personal tabs can be accessed anytime from any device, even offline.
Learn more »
comments
print report bad tab
4 comments total. Showing first comments. show 1 bad comment
+1 reply
danny_ruyven 10 Dec 15, 2015 01:43 PM, edited at 07:06 pm

In this version you won't be able to play the chorus part then, where there is an open A string.

+1 reply
TrisVampsDrums 617 Feb 12, 2016 07:14 PM

Really accurate great job!!

guest
You may want to rate the tab now too:
select rating
Wanna post a correction for this tab? Suggest correction