Oops, an error
Loading. Please wait.
We have Chord Pro version of More Than This.
It's the closest thing you can get to the original song and it has interactive parts. Check out the tab »
×

More Than This chords

version 12
version 12

Whole song

Interactive

416 views 1 this week
no commentswrite comment
1 2 3 4 5
3 more votes to show rating
add to favorites
×
Save as Personal and add changes to this tab that will be seen only by you. Learn more ›
×
You can save this tab as Personal to edit and correct it or add notes. All changes will be seen only by you. Learn more »
launch autoscroll
font size
0
reset
transpose
0
reset
simplify chords
display chords
guitar tuner
edit
Autoscroll
slow
fast
+/-
esc
set tempo
stop
Author
Difficulty
About this tab version
Specific, corrected chords true to the key, labeled and timed sections, tab, strumming patterns. Was this info helpful? Yes No
Strumming Are these strumming patterns correct? Yes No
Main strum (if not fingerpicking) 76 bpm
1
 
&
 
2
 
&
 
Listen
Turn 76 bpm
1
 
&
 
Listen
Chorus 76 bpm
1
 
&
 
2
 
&
 
3
 
&
 
4
 
&
 
Listen
====RIFFS====

Intro and verses (unless otherwise noted)
e|-----------------|-----------------|-----------------|-----------------|
B|-------1---------|-------1---------|-------1---------|-------1---------|
G|-----------0-----|-----------0-----|-----------2-----|-----------2-----|
D|-----2---------2-|-----2---------2-|-----2---------2-|-----2---------2-|
A|-3---------------|-3---------------|-0---------------|-0---------------|
E|-----------------|-----------------|-----------------|-----------------|
   1 + 2 + 3 + 4 +   1 + 2 + 3 + 4 +   1 + 2 + 3 + 4 +   1 + 2 + 3 + 4 +
   C                                   Am7


e|-----------------|-----------------|-----------------|-----------------|
B|-------3---------|-------3---------|-------0---------|-------1---------|
G|-----------0-----|-----------0-----|-----------0---0-|-----2-----2-----|
D|-----0---------0-|-----0---------0-|-----2-----------|-3-----------0---|
A|-----------------|-----------------|-------------2---|-----------------|
E|-3---------------|-3---------------|-0---------------|---------3-------|
   1 + 2 + 3 + 4 +   1 + 2 + 3 + 4 +   1 + 2 + 3 + 4 +   1 + 2 + 3 + 4 +   
   G                                   Em                F       Gsus2

Final measure, verse 1
|-----------------|
|-------1---------|
|-----2-------2-0-|
|-3---------------|
|-----------------|
|---------3-------|
  1 + 2 + 3 + 4 +   
  F       G

Second half of verse 2 ('cause we are... gone again)

e|-----------------|-----------------|-----------------|-----------------|
B|-------1---------|-------1---------|-------1---------|-------1---------|
G|-----------0-----|-----------0-----|-----------2-----|-----------2-----|
D|-----2---------2-|-----2---------2-|-----2---------2-|-----2---------2-|
A|-3---------------|-3---------------|-0---------------|-0---------------|
E|-----------------|-----------------|-----------------|-----------------|
   1 + 2 + 3 + 4 +   1 + 2 + 3 + 4 +   1 + 2 + 3 + 4 +   1 + 2 + 3 + 4 +
   C                                   Am7

e|-----------------|-----------------|-----------------|-----------------|
B|-------3---------|-------3---------|-------0---------|-------1---------|
G|-----------0-----|-----------0-----|-----------0---0-|-----2-----2-----|
D|-----2---------2-|-----2---------2-|-----2-----------|-3-----------0---|
A|-----------------|-----------------|-------------2---|-----------------|
E|-3---------------|-3---------------|-0---------------|---------3-------|
   1 + 2 + 3 + 4 +   1 + 2 + 3 + 4 +   1 + 2 + 3 + 4 +   1 + 2 + 3 + 4 +
   Em7/G                               Em                F       G


Pre-Chorus (2nd time, synth/vocals only last two measures)
e|-----------------|-----------------|-----------------|-----------------|
B|-------1---------|-------1---------|-------3---------|-------3---------|
G|-----------2-----|-----------2-----|-----------0-----|-----------0-----|
D|-----2---------2-|-----2---------2-|-----2---------2-|-----2---------2-|
A|-0---------------|-0---------------|-----------------|-----------------|
E|-----------------|-----------------|-3---------------|-3---------------|
   1 + 2 + 3 + 4 +   1 + 2 + 3 + 4 +   1 + 2 + 3 + 4 +   1 + 2 + 3 + 4 +
   Am                                  Em7/G

e|-----------------|-----------------|-----------------|-------------------|
B|-------1---------|-------1---------|-------1---------|-------3-----------|
G|-----2-----2---2-|-----2-----2---2-|-----2-----2---2-|-----------2-------|
D|-3-----------3---|-3-----------3---|-3-----------3---|-----0-------------|
A|-----------------|-----------------|-----------------|-------------------|
E|-----------------|-----------------|-----------------|-3-----------------|
     1 + 2 + 3 + 4 +   1 + 2 + 3 + 4 +   1 + 2 + 3 + 4 +   1 + 2 + 3 + 4 +
   F                                 ( Fmaj7             Gsus2 )


==END RIFFS==


ORDER: I V1 PC1 C1 V2 PC2 C2 B FC1 FC2


[INTRO]
C | | Am7 | | G | | Em | F G |


[VERSE 1]
C            Am7
  I'm broken,   do you hear me?
G                    Em                F     Gsus2
  I'm blinded 'cause you are everything I see,
C            Am7
  I'm dancin'   alone,
G                      Em                    F       Gsus2
  I'm praying that your  heart will just turn around,


[PRE-CHORUS 1]
   Am
     And as I walk up to your door,
Em7/G
     my head turns to face the floor
    F                                   Fmaj7         Gsus2
     'Cause I can't look you in the eyes     and say,


[CHORUS 1]
          C                       Am
  When he opens his arms and holds  you close tonight,
 G
  it just won't feel right
Dm                 C                   G
  'cause I can love you more than this, yeah,
          C                     Am
  When he lays you down, I might  just die inside,
 G
  it just don't feel right
Dm                 C
  'cause I can love you more than this,
 G    n.c.                    C | |
  can love you more than this


[VERSE 2]
    C              Am7
     If I'm louder,   would you see me?
    G                   Em                 F        G
     Would you lay down in my arms and res - cue me?
    C             Am7
     'Cause we are   the same
Em7/G              Em                      F      G
     You saved me, when you leave it's gone again,


[PRE-CHORUS 2]
         Am
     And then I see you on the street,
Em7/G
     in his arms, I get weak,
    F                              Fmaj7       G
     My body fails, I'm on my knees     prayin'


[CHORUS 2]
          C                       Am
  When he opens his arms and holds  you close tonight,
G
  It just won't feel right,
Dm                 C                   G
  'cause I can love you more than this, yeah,
          C                     Am
  When he lays you down, I might  just die inside,
G
  It just don't feel right,
Dm                 C                   G
  'cause I can love you more than this, yeah


[BRIDGE]
    Dm
      I've never had the words to say,
    Bb
      but now I'm askin' you to stay
     F                         C        Csus4 C
      for a little while inside my arms,
   Dm7
      And as you close your eyes tonight,
   Bb6
      I pray that you will see the light
     F                             C
      that's shining from the stars above,
Csus4     C     n.c.
     (And I say)


[FINAL CHORUS 1] - come back full at "lays"
             C                       Am
     When he opens his arms and holds  you close tonight,
G
     it just won't feel right
Dm                    C
     'Cause I can love you more than this,
Gsus4
     'Cause I can love you more than this
             C                     Am
     When he lays you down, I might  just die inside,
G
     it just don't feel right,
Dm                    C                   G
     'cause I can love you more than this, yeah


[FINAL CHORUS 2]
          C                       Am
  When he opens his arms and holds  you close tonight,
G
  It just won't feel right,
Dm                 C                   G
  'cause I can love you more than this, yeah
          C                     Am
  When he lays you down, I might  just die inside,
G
  It just don't feel right,
Dm                 C
  'cause I can love you more than this,
G                       C
  Can love you more than this

            
            
Suggest correction
Creating personal tab
Creating personal tab
You can edit any tab online and save it as your Personal.

You can edit, replace or remove any tab part or add personal notes – all changes will be seen only by you.

Personal tabs can be accessed anytime from any device, even offline.
Learn more »
Give kudos to tab author, rate the tab!
1 2 3 4 5
comments
print report bad tab
guest
You may want to rate the tab now too:
select rating
Wanna post a correction for this tab? Suggest correction