Oops, an error
Loading. Please wait.

Steal My Girl tab

version 1
version 1

Whole song

Video

2,887 views 12 this week
1 commentread comment
1 2 3 4 5
x 4
add to favorites
×
Save as Personal and add changes to this tab that will be seen only by you. Learn more ›
×
You can save this tab as Personal to edit and correct it or add notes. All changes will be seen only by you. Learn more »
launch autoscroll
font size
0
reset
how to read this tab
guitar tuner
edit
Autoscroll
slow
fast
+/-
esc
set tempo
stop
-------------------------------------------------------------------------------
                             STEAL MY GIRL - ONE DIRECTION
-------------------------------------------------------------------------------
Based off Youtube Cover :https://www.youtube.com/watch?v=UpsKGvPjAgw
Channel: https://www.youtube.com/user/OneDirectionVEVO

MAKE SURE TO RATE THE TAB AND FOLLOW THE YOUTUBER CHANNEL IF YOU FIND IT HELPFUL!! ENJOY <3

Tuning:Standard Tuning 
No capo

Tuning:Standard

e|------------|---------------|---------------|---------------|------|------|
B|-3--3--1--3-|-1--3--3--1--3-|-1--3--3--1--3-|-1--3--3--1--3-|------|------|
G|------------|---------------|---------------|---------------|-5--3-|-5--3-|
D|------------|---------------|---------------|---------------|------|------|
A|------------|---------------|---------------|---------------|------|------|
E|------------|---------------|---------------|---------------|------|------|
She been my queen| Since we were sixteen| We want the same things| We dream the same dreams| Alright| (Alright)

e|------------|---------------|---------------|---------------|------|------|
B|-3--3--1--3-|-1--3--3--1--3-|-1--3--3--1--3-|-1--3--3--1--3-|------|------|
G|------------|---------------|---------------|---------------|-5--3-|-5--3-|
D|------------|---------------|---------------|---------------|------|------|
A|------------|---------------|---------------|---------------|------|------|
E|------------|---------------|---------------|---------------|------|------|
I got it all| 'Cause she is the one| Her mum calls me love| Her dad calls me son| Alright| (Alright)

e|------|----1-|------|------|
B|-3--1-|-3----|-3----|------|
G|------|------|----3-|-3--0-|
D|------|------|------|------|
A|------|------|------|------|
E|------|------|------|------|
I know| I know| I know| For sure

e|-1--3--3--1-----------1----------|-1--3--3--1----------------------|
B|-------------3--1--3-----3--1----|-------------3--1--3--4--4--3--4-|
G|-------------------------------3-|---------------------------------|
D|---------------------------------|---------------------------------|
A|---------------------------------|---------------------------------|
E|---------------------------------|---------------------------------|
Everybody wanna steal my girl| Everybody wanna take her heart away

e|------------------------------|------------------|---------------|
B|-3--4--4--3--1-----1--3-------|-3--4--4--3--1----|-1--3--1-------|
G|----------------3--------2----|----------------3-|----------3--3-|
D|----------------------------3-|------------------|---------------|
A|------------------------------|------------------|---------------|
E|------------------------------|------------------|---------------|
Couple billion in the whole wide world| Find another one| 'Cause she belongs to me

e|-1--3--3--1-----------1----------|-1--3--3--1----------------------|
B|-------------3--1--3-----3--1----|-------------3--1--3--4--4--3--4-|
G|-------------------------------3-|---------------------------------|
D|---------------------------------|---------------------------------|
A|---------------------------------|---------------------------------|
E|---------------------------------|---------------------------------|
Everybody wanna steal my girl| Everybody wanna take her heart away

e|------------------------------|------------------|-3--1----------|
B|-3--4--4--3--1-----1--3-------|-3--4--4--3--1----|-------3--1----|
G|----------------3--------2----|----------------3-|-------------3-|
D|----------------------------3-|------------------|---------------|
A|------------------------------|------------------|---------------|
E|------------------------------|------------------|---------------|
Couple billion in the whole wide world| Find another one| 'Cause she belongs to me

e|------------------|--------|------------------|--------|
B|-4--3--1--3--1----|-Lyrics-|-4--3--1--3--1----|-Lyrics-|
G|----------------3-|--------|----------------3-|--------|
D|------------------|--------|------------------|--------|
A|------------------|--------|------------------|--------|
E|------------------|--------|------------------|--------|
Na na na na na na| (Oh, yeah)| Na na na na na na| (Alright)

e|------------------|-------3--1----------|
B|-4--3--1--3--1----|-4--3--------3--1----|
G|----------------3-|-------------------3-|
D|------------------|---------------------|
A|------------------|---------------------|
E|------------------|---------------------|
Na na na na na na| Na na, she belongs to me

e|------------|---------------|---------------|---------------|------|------|
B|-3--3--1--3-|-1--3--3--1--3-|-1--3--3--1--3-|-1--3--3--1--3-|------|------|
G|------------|---------------|---------------|---------------|-5--3-|-5--3-|
D|------------|---------------|---------------|---------------|------|------|
A|------------|---------------|---------------|---------------|------|------|
E|------------|---------------|---------------|---------------|------|------|
Kisses like cream| Her walk is so mean| And every jaw drop| When she's in those jeans| Alright| (Alright)

e|------------|---------------|---------------|---------------|------|------|
B|-3--3--1--3-|-1--3--3--1--3-|-1--3--3--1--3-|-1--3--3--1--3-|------|------|
G|------------|---------------|---------------|---------------|-5--3-|-5--3-|
D|------------|---------------|---------------|---------------|------|------|
A|------------|---------------|---------------|---------------|------|------|
E|------------|---------------|---------------|---------------|------|------|
I don't exist| If I don't have her| The sun doesn't shine| The world doesn't turn| Alright| (Alright)

e|---------|----1-|------|------|
B|-1--3--1-|-3----|-3----|------|
G|---------|------|----3-|-3--0-|
D|---------|------|------|------|
A|---------|------|------|------|
E|---------|------|------|------|
But I know| I know| I know| For sure

e|-1--3--3--1-----------1----------|-1--3--3--1----------------------|
B|-------------3--1--3-----3--1----|-------------3--1--3--4--4--3--4-|
G|-------------------------------3-|---------------------------------|
D|---------------------------------|---------------------------------|
A|---------------------------------|---------------------------------|
E|---------------------------------|---------------------------------|
Everybody wanna steal my girl| Everybody wanna take her heart away

e|------------------------------|------------------|---------------|
B|-3--4--4--3--1-----1--3-------|-3--4--4--3--1----|-1--3--1-------|
G|----------------3--------2----|----------------3-|----------3--3-|
D|----------------------------3-|------------------|---------------|
A|------------------------------|------------------|---------------|
E|------------------------------|------------------|---------------|
Couple billion in the whole wide world| Find another one| 'Cause she belongs to me

e|-1--3--3--1-----------1----------|-1--3--3--1----------------------|
B|-------------3--1--3-----3--1----|-------------3--1--3--4--4--3--4-|
G|-------------------------------3-|---------------------------------|
D|---------------------------------|---------------------------------|
A|---------------------------------|---------------------------------|
E|---------------------------------|---------------------------------|
Everybody wanna steal my girl| Everybody wanna take her heart away

e|------------------------------|-------------------3--1----------|
B|-3--4--4--3--1-----1--3-------|-3--4--4--3--1-----------3--1----|
G|----------------3--------2----|----------------3--------------3-|
D|----------------------------3-|---------------------------------|
A|------------------------------|---------------------------------|
E|------------------------------|---------------------------------|
Couple billion in the whole wide world| Find another one| 'Cause she belongs to me

e|------------------|--------|------------------|--------|
B|-4--3--1--3--1----|-Lyrics-|-4--3--1--3--1----|-Lyrics-|
G|----------------3-|--------|----------------3-|--------|
D|------------------|--------|------------------|--------|
A|------------------|--------|------------------|--------|
E|------------------|--------|------------------|--------|
Na na na na na na| (Oh, yeah)| Na na na na na na|  (Alright)

e|------------------|------------------|
B|-4--3--1--3--1----|-4--3--1--3--1----|
G|----------------3-|----------------3-|
D|------------------|------------------|
A|------------------|------------------|
E|------------------|------------------|
Na na na na na na| Na na na na na na

e|------|----1-|---------------------|------|
B|-3--1-|-3----|-3--1----------------|------|
G|------|------|-------3--3--3--1--3-|-2--0-|
D|------|------|---------------------|------|
A|------|------|---------------------|------|
E|------|------|---------------------|------|
She knows| She knows| That I never let her down| Before

e|------|----1-|-0--1--3--1--1-----3--1--1-----3--1--1-----1--3-|
B|-3--1-|-3----|----------------3-----------3-----------3-------|
G|------|------|------------------------------------------------|
D|------|------|------------------------------------------------|
A|------|------|------------------------------------------------|
E|------|------|------------------------------------------------|
She knows| She knows| That I'm never gonna let another take her love from me now

e|-1--3--3--1-----------1----------|-1--3--3--1----------------------|
B|-------------3--1--3-----3--1----|-------------3--1--3--4--4--3--4-|
G|-------------------------------3-|---------------------------------|
D|---------------------------------|---------------------------------|
A|---------------------------------|---------------------------------|
E|---------------------------------|---------------------------------|
Everybody wanna steal my girl| Everybody wanna take her love away

e|------------------------------|------------------|-3--1-----1--3-|
B|-3--4--4--3--1-----1--3-------|-3--4--4--3--1----|-------3-------|
G|----------------3--------2----|----------------3-|---------------|
D|----------------------------3-|------------------|---------------|
A|------------------------------|------------------|---------------|
E|------------------------------|------------------|---------------|
Couple billion in the whole wide world| Find another one| 'Cause she belongs to me

e|-1--3--3--1-----------1----------|-1--3--3--1----------------------|
B|-------------3--1--3-----3--1----|-------------3--1--3--4--4--3--4-|
G|-------------------------------3-|---------------------------------|
D|---------------------------------|---------------------------------|
A|---------------------------------|---------------------------------|
E|---------------------------------|---------------------------------|
Everybody wanna steal my girl| Everybody wanna take her heart away

e|------------------------------|------------------|-3--1----------|
B|-3--4--4--3--1-----1--3-------|-3--4--4--3--1----|-------3--1----|
G|----------------3--------2----|----------------3-|-------------3-|
D|----------------------------3-|------------------|---------------|
A|------------------------------|------------------|---------------|
E|------------------------------|------------------|---------------|
Couple billion in the whole wide world| Find another one| 'Cause she belongs to me

e|------------------|--------|------------------|--------|
B|-4--3--1--3--1----|-Lyrics-|-4--3--1--3--1----|-Lyrics-|
G|----------------3-|--------|----------------3-|--------|
D|------------------|--------|------------------|--------|
A|------------------|--------|------------------|--------|
E|------------------|--------|------------------|--------|
Na na na na na na| (Oh, yeah, alright, yeah)| Na na na na na na| (Alright)

e|------------------|-------3--1----------|
B|-4--3--1--3--1----|-4--3--------3--1----|
G|----------------3-|-------------------3-|
D|------------------|---------------------|
A|------------------|---------------------|
E|------------------|---------------------|
Na na na na na na| Na na, she belongs to me

e|------------------|--------|------------------|--------|
B|-4--3--1--3--1----|-Lyrics-|-4--3--1--3--1----|-Lyrics-|
G|----------------3-|--------|----------------3-|--------|
D|------------------|--------|------------------|--------|
A|------------------|--------|------------------|--------|
E|------------------|--------|------------------|--------|
Na na na na na na| (Oh, yeah)|Na na na na na na| (She belongs to me, yeah)

e|------------------|--------|------------------|
B|-4--3--1--3--1----|-Lyrics-|-4--3--1--3--1----|
G|----------------3-|--------|----------------3-|
D|------------------|--------|------------------|
A|------------------|--------|------------------|
E|------------------|--------|------------------|
Na na na na na na| (Alright)| Na na na na na na

e|-------3--1----------|
B|-4--3--------3--1----|
G|-------------------3-|
D|---------------------|
A|---------------------|
E|---------------------|
She belongs to me





************************************

| /   slide up
| \   slide down
| h   hammer-on
| p   pull-off
| ~   vibrato
| +   harmonic
| x   Mute note
| b   Bend
| pb  Pre-bend
| br  Bend release
| pbr Pre-bend release
| brb Bend release bend

************************************

            
            
Suggest correction
Creating personal tab
Creating personal tab
You can edit any tab online and save it as your Personal.

You can edit, replace or remove any tab part or add personal notes – all changes will be seen only by you.

Personal tabs can be accessed anytime from any device, even offline.
Learn more »
comments
print report bad tab
1 comment total.
0 reply
syeknom101 158 Mar 02, 2016 08:57 AM

it doesn't sound right to me, and i love this song and know it like the back of my hand

guest
You may want to rate the tab now too:
select rating
Wanna post a correction for this tab? Suggest correction