Oops, an error
Loading. Please wait.

Steal My Girl tab

version 2
version 2

Whole song

Video

3,721 views 54 this week
1 commentread comment
1 2 3 4 5
x 4
add to favorites
×
Save as Personal and add changes to this tab that will be seen only by you. Learn more ›
×
You can save this tab as Personal to edit and correct it or add notes. All changes will be seen only by you. Learn more »
launch autoscroll
font size
0
reset
how to read this tab
guitar tuner
edit
Autoscroll
slow
fast
+/-
esc
set tempo
stop
[Intro]: Play twice before first verse

----------------------------------------------------------|
---3-2-0-2-0-----3-2-0-2-0-----3-2-0-2-0-----3-2-0-2-0----|
-------------2-------------2-------------2-------------2--|
-----------------------------0-------------0--------------|  x2
-0-------------0------------------------------------------|
----------------------------------------------------------|

[Zayn: Verse]

She been my queen
Since we were sixteen
We want the same things,
We dream the same dreams,
Alright (alright)

I got it all            (you have to repeat verse tab to play this part)
'Cause she is the one
Her mom calls me 'love',
Her dad calls me 'son',
Alright (alright)
--------------------------------------------------------------------------|
-2-2-0-2-0-2-2-0-2-0-2-2-0-2-0-2-2-0-2-0-------3-3-3-2-0-0-0-2--0---------|
-----------------------------------------2-2----------------------2-------|  x2
--------------------------------------------------------------------------|
--------------------------------------------------------------------------|
--------------------------------------------------------------------------|

Play the 3-3-3-2 part twice, then repeat the whole thing and play the 3-3-3-2 part twice
again the second time,
I think that sounds pretty accurate. Listen to the song if you don't know what I mean,
the part where Zayn
doesn't sing is repeated twice before he sings the second verse, and then is played
again 2 times after it and
before Niall's part


[Niall: Pre chorus]

The first tab is Niall's first part, the second one is his second, they are
a little bit different.

1. I know, I know, I know, for sure
2. But I know, I know, I know, for sure     
Tab 1                 Tab 2
----------0----------!----------0-----------|
-2-0--2-----2--------!-2-2-0--2---2---------|
--------------2------!--------------2-------|
-----------------4-4-!-----------------4-4--|
---------------------!----------------------|
---------------------!----------------------|

[All: Chorus]

Everybody wanna steal my girl
Everybody wanna take her heart away
Couple billion in the whole wide world
Find another one 'cause she belongs to me

-0-2-2-0-0-0------------0-2-2-0-0-0-----------------------------------------------------|
-------------0-2-2-0----------------0-2-2-0---3-3-3-3-2-2-0-0-2---3-3-3-2-2-0-0-2-2-0---|
---------------------2----------------------2-------------------2---------------------2-|
----------------------------------------------------------------------------------------|
----------------------------------------------------------------------------------------|
----------------------------------------------------------------------------------------|

Repeat intro after chorus for the na na na na na na part

----------------------------------------------------------|
---3-2-0-2-0-----3-2-0-2-0-----3-2-0-2-0-----3-2-0-2-0----|
-------------2-------------2-------------2-------------2--|
-----------------------------0-------------0--------------|  x2
-0-------------0------------------------------------------|
----------------------------------------------------------|

[Liam: "Alright" & "oh yeah"] 

add that into the intro part of the chorus instead of the 2nd
bass notes, listen to
the song to find out more accurately when to play them
-----------|
-5-5-2-----|
-----------|
-----------|
-----------|
-----------|

[Harry "She belongs to me"]

(end of chorus) Both of these sound the same, just preference over
if you like switching
strings are not
-0-2-0--------    -------------|
-------2-0----    -5-7-5-2-0---|
-----------2--    -----------2-|
--------------    -------------|
--------------    -------------|
--------------    -------------|

[Bridge: Harry]

His part is alot like Niall's, similar riff


She knows, she knows
That I've never let her down before
She knows, she knows
That I'm never gonna let another take her love from me now

---------0--------------------------0-----0-2-0-0-0-0-----0-2-0-0-----0-2--|
-2-0-2-----2-0----------------2-0-2-----2-------------2-2---------2--------|
---------------2-2-2-2-2---------------------------------------------------|
-------------------------4-4-----------------------------------------------|
---------------------------------------------------------------------------|
---------------------------------------------------------------------------|

That's it, hope it helps :)))) It has a capo though because open tuning is not in the
right key of the song,
i'll update this when I find out what key it's in! Goodluck

            
            
Suggest correction
Creating personal tab
Creating personal tab
You can edit any tab online and save it as your Personal.

You can edit, replace or remove any tab part or add personal notes – all changes will be seen only by you.

Personal tabs can be accessed anytime from any device, even offline.
Learn more »
comments
print report bad tab
1 comment total.
0 reply
LittleMartin549 80 Aug 22, 2016 11:55 AM

Nice work. A little bit off in some places, but over all, a very good tab. It is in the key of A by way. :)

guest
You may want to rate the tab now too:
select rating
Wanna post a correction for this tab? Suggest correction