Oops, an error
Loading. Please wait.

You And I tab

version 2
version 2

Whole song

931 views 6 this week
no commentswrite comment
1 2 3 4 5
x 3
add to favorites
×
Save as Personal and add changes to this tab that will be seen only by you. Learn more ›
×
You can save this tab as Personal to edit and correct it or add notes. All changes will be seen only by you. Learn more »
launch autoscroll
font size
0
reset
how to read this tab
guitar tuner
edit
Autoscroll
slow
fast
+/-
esc
set tempo
stop
Capo on 1st fret (optional)


e|----------------1h0-----------------------------------------------------|
B|-----1h3---5-----------3p5-----5----------------------------------------|
G|-----------------------------------3------------------------------------|
D|------------------------------------------------------------------------|
A|------------------------------------------------------------------------|
E|------------------------------------------------------------------------|

This is for the intro and Chorus and the chords go like this:

F-G-AM-C-F

If you want to put the fingerpicking-part in you just replace the C with it.



Verse
e|------------------------------------------------------------------------|
B|------------------------------------------------------------------------|
G|-----0---0h1--44--2--------0---0h1--44--22--0-- ---0---0h1--44--2-------|
D|-----0---------------------0-----------------------2--------------------|
A|-----2---------------------2-----------------------2--------------------|
E|-----3---------------------3-----------------------0--------------------|
       

e|---------------------------------|
B|---------------------------------|
G|-----0---0h1--44--22--0----------|
D|-----2---------------------------|
A|-----2---------------------------|
E|-----0---------------------------|


I came up with this myself after watching some covers and such, but couldn't find a good tab for it. This tab is
not perfect, but i think its fairly accurate, sounds like the song at least. So play around with it a bit to 
make it sound exactly like the original song or make your own version. Happy to receive feedback!

            
            
Suggest correction
Creating personal tab
Creating personal tab
You can edit any tab online and save it as your Personal.

You can edit, replace or remove any tab part or add personal notes – all changes will be seen only by you.

Personal tabs can be accessed anytime from any device, even offline.
Learn more »
Give kudos to tab author, rate the tab!
1 2 3 4 5
comments
print report bad tab
guest
You may want to rate the tab now too:
select rating
Wanna post a correction for this tab? Suggest correction