Oops, an error
Loading. Please wait.

You And Me tab

13,210 views 3 this week
5 commentsread comments
1 2 3 4 5
x 6
add to favorites
×
Save as Personal and add changes to this tab that will be seen only by you. Learn more ›
×
You can save this tab as Personal to edit and correct it or add notes. All changes will be seen only by you. Learn more »
launch autoscroll
font size
0
reset
how to read this tab
guitar tuner
edit
Autoscroll
slow
fast
+/-
esc
set tempo
stop
Author
Difficulty
------------------------------------------------------------
                    You And Me - One Night Only
------------------------------------------------------------

Song Title: You And Me
Artist: One Night Only
Album: Started A Fire
Tabbed by: Tom Rowell (ScreamAim&Fire)
Tuning: Standard EADGBe

Chords:
C (01023x)
D7 (x3545x)
F (01230x)
C#7 (x2434x)
Am (01220x)
G (330023)


e|---------12---------------------12-----------------|
B|------13---13-15-13---13-----13---13-15-13---------|
G|---12---------------14----12---------------14------|
D|---------------------------------------------------|
A|---------------------------------------------------|
E|---------------------------------------------------|

e|---------13-------13h15p13-12----------------------|
B|------13---13---13------------13----13-15-13----13-|
G|---14---------14-----------------12----------14----|
D|---------------------------------------------------|
A|---------------------------------------------------|
E|---------------------------------------------------| X2

C           D7                             F
People say, I only hear what I want to
             C
That much is true,
C           D7                            F
People say, I only see what I want to
                 C
So why do I see you?

D7 D7 D7 D7 D7 D7 D7 C#7 x2

C          D7
You and me, equality,
F                       C
That's how it should be, you and me,
C          D7
You and me, equality,
F                       C
That's how it should be, you and me,

C Am F G

C           Am
People say, that I creep you out
F                 G
No understanding, no cash in hand
C             Am
But all I see, is apparently
F                 G
What do they know about you and me?

C          D7
You and me, equality,
F                       C
That's how it should be, you and me,
C          D7
You and me, equality,
F                       C
That's how it should be, you and me,

D7 x32

C          D7
You and me, equality,
F                       C
That's how it should be, you and me,
C          D7
You and me, equality,
F                       C
That's how it should be, you and me,

C Am F G

C           Am
People say, that I creep you out
F                 G
No understanding, no cash in hand
C             Am
But all I see, is apparently
F                 G
What do they know about you and me?

            
            
Suggest correction
Creating personal tab
Creating personal tab
You can edit any tab online and save it as your Personal.

You can edit, replace or remove any tab part or add personal notes – all changes will be seen only by you.

Personal tabs can be accessed anytime from any device, even offline.
Learn more »
comments
print report bad tab
5 comments total. Showing first comments.
+1 reply
ataylor 10 Apr 01, 2008 03:19 AM

this sucks ass

+1 reply
ScreamAim&Fire 31 Apr 30, 2008 10:03 AM

This tab's for the single version
You could have the demo version which is in a completely different key.
The other version on here is the demo version.
But this sounds right to me for the single version.

+1 reply
ScreamAim&Fire 31 Apr 30, 2008 10:04 AM

e|---------12---------------------12-----------------|
B|------13---13-15-13---13-----13---13-15-13----13---|
G|---12---------------14----12---------------14------|
D|---------------------------------------------------|
A|---------------------------------------------------|
E|---------------------------------------------------|

forgot the last 13 on the first bit.

guest
You may want to rate the tab now too:
select rating
Wanna post a correction for this tab? Suggest correction