Oops, an error
Loading. Please wait.

Heartache tab

3,712 views 45 this week
no commentswrite comment
1 2 3 4 5
x 6
add to favorites
×
Save as Personal and add changes to this tab that will be seen only by you. Learn more ›
×
You can save this tab as Personal to edit and correct it or add notes. All changes will be seen only by you. Learn more »
launch autoscroll
font size
0
reset
how to read this tab
guitar tuner
edit
Autoscroll
slow
fast
+/-
esc
set tempo
stop
Title: Heartache
Artist: One Ok Rock
Album: 35xxxv

Reference: Heartache Chords version 2 and this playthrough https://www.youtube.com/watch?v=wZ1axRrCFzg
Album version of the song
Tuning: Half step down / Eb Ab Db Gb Bb eb
Tab for the lead guitar
Chords for acoustic guitar playing throughout the song
Tabbed it so I can play it too XD


[Verse]

D                      Asus                                   Em?            G
So they say that time  Takes away the pain  But I’m still the same           ~ohh
                                                               eb|-----------|
                                                               Bb|------3~---|
                                                               Gb|-----------|
                                                               Db|-4s5-------|
                                                               Ab|-----------|
                                                               Eb|-----------|
                                                                   10 second mark

D                    Asus                                 Em?               G
And they say that I  Will find another you  That can’t be true              ~ohh
                                                          eb|------------------------------|
                                                          Bb|------3~----------------7-----|
                                                          Gb|--------------------------7---|
                                                          Db|-4s5---------------4s5--------|
                                                          Ab|------------------------------|
                                                          Eb|------------------------------|
                                                             0:23               0:26

[Pre-Chorus]

  Em?                    G                          D                         Asus
  Why didn’t I realize?  Why did I tell lies?  Yeah I wish that I could do it again   ohh
eb|-------------------------------------------------2------------------------------------|
Bb|-3--------------------3--------------------------3--------------------------5-5-5-----|
Gb|----------------------4--------------------------2--------------------------7-6-7-----|
Db|-2--------------------5-----------------------------------------------------7-7-7-----|
Ab|-2------------------------------------------------------------------------------------|
Eb|--------------------------------------------------------------------------------------|
  0:29                   0:32                       0:36                       0:39

  Em?                     G                        Asus           A
  Turnin’ back the time   Back when you were mine  All mine~
eb|---------------------------------------------------------------17--171717--17--17--171717--17----|
Bb|-3---------------------3------------------------5-5-5------------15------15--15--15------15--15--|
Gb|-----------------------4------------------------7-6-7--------------------------------------------|
Db|-2---------------------5------------------------7-7-7--------------------------------------------|
Ab|-2-----------------------------------------------------------------------------------------------|
Eb|-------------------------------------------------------------------------------------------------|
  0:43                    0:46                     0:49           0:53


[Chorus]

D                     G
So this is heartache? So this is heartache?
Em?                            Asus
Hiroi atsumeta kōkai wa namida e to kawari oh baby
D                     G
So this is heartache? So this is heartache?
Em?                            Asus
Ano hi no kimi no egao wa omoide ni kawaru I miss you


[Interlude]

  D    G    D    G
eb|------------------------------------------------------------------------------14-15-14-15-14-14-14-15-14~-|
Bb|------------14-15~------------14--15-17-15-17-15-------------14-15~---------------------------------------|
Gb|-s11-12-11----------11-12-11----------------------s11-12-11----------11-12-11-----------------------------|
Db|----------------------------------------------------------------------------------------------------------|
Ab|----------------------------------------------------------------------------------------------------------|
Eb|----------------------------------------------------------------------------------------------------------|
   1:23


[Verse]

D                Asus                      Em?     G
Boku no kokoro o yuiitsu mitashite satte yuku kimi ga
                                         eb|------------|
                                         Bb|-------3~---|
                                         Gb|------------|
                                         Db|--4s5-------|
                                         Ab|------------|
                                         Eb|------------|
                                              1:44

D                 Asus                        Em?         G
Boku no kokoro ni yuiitsu fure rareru koto ga dekita kimi wa       ~ Oh baby
                                              eb|----------------------------|
                                              Bb|------3~----------7---------|
                                              Gb|--------------------7-------|
                                              Db|-4s5----------4s5-----------|
                                              Ab|----------------------------|
                                              Eb|----------------------------|
                                                  1:57        2:00


[Pre-Chorus]

  Em?                    G                          D                         Asus
  Mō inai yo mō          nani mo nai yo        Yeah I wish that I could do it again  ohh
eb|-------------------------------------------------2-----------------------------------|
Bb|-3--------------------3--------------------------3-------------------------5-5-5-----|
Gb|----------------------4--------------------------2-------------------------7-6-7-----|
Db|-2--------------------5----------------------------------------------------7-7-7-----|
Ab|-2-----------------------------------------------------------------------------------|
Eb|-------------------------------------------------------------------------------------|
   2:03                  2:06                       2:10                      2:13

  Em?                     G                        Asus           A
  Turnin’ back the time   Back when you were mine  All mine~
eb|---------------------------------------------------------------17--171717--17--17--171717--17----|
Bb|-3---------------------3------------------------5-5-5------------15------15--15--15------15--15--|
Gb|-----------------------4------------------------7-6-7--------------------------------------------|
Db|-2---------------------5------------------------7-7-7--------------------------------------------|
Ab|-2-----------------------------------------------------------------------------------------------|
Eb|-------------------------------------------------------------------------------------------------|
   2:17                   2:20                     2:23           2:26


[Chorus]

D                     G
So this is heartache? So this is heartache?
Em?                            Asus
Hiroi atsumeta kōkai wa namida e to kawari oh baby
D                     G
So this is heartache? So this is heartache?
Em?                             Asus
Ano hi no kimi no egao wa omoide ni kawaru I miss you


[Bridge]

  G         D                      Asus                 Em?
  It’s so hard to forget           Kataku musunda sono musubime wa
eb|-------------------------------------------------------------------------|
Bb|----------------1010--------------------------------101010---------------|
Gb|-7------------77----77----------9------------------7------99-------------|
Db|-------------------------------------------------------------------------|
Ab|-5------------------------------7----------------------------------------|
Eb|-------------------------------------------------------------------------|
  strum                            strum
  2:57

  G         D                   Asus               Em?
  It’s so hard to forget        Tsuyoku hikeba hiku hodo ni
eb|------------------------------------------------------------------|
Bb|----------------1010----------------------------------------------|
Gb|-7------------77----77-------9------------------7------11---------|
Db|------------------------------------------------------------------|
Ab|-5---------------------------7------------------5------9----------|
Eb|------------------------------------------------------------------|
  strum                         strum
  3:04


  G         D                      Asus              Em?
  You and all the regret           Hodokenaku natte hanare renaku natta
eb|-------------------------------------------------------------------------|
Bb|----------------1010--------------------------------101010---------------|
Gb|-7------------77----77----------9------------------7------99-------------|
Db|-------------------------------------------------------------------------|
Ab|-5------------------------------7----------------------------------------|
Eb|-------------------------------------------------------------------------|
  strum                            strum
  3:10

  G                                D
  Ima wa tsurai yo                 sore ga tsurai yo
eb|-------------------------------------------------------------------------|
Bb|----------------1010--------------------------------101010---------------|
Gb|-7------------77----77----------7------------------7------99-------------|
Db|-5------------------------------4----------------------------------------|
Ab|-------------------------------------------------------------------------|
Eb|-------------------------------------------------------------------------|
  strum                     strum
  3:17

       G                               Asus       A
  sugu wasuretai yo               kimi o~
eb|-------------------------------------------------------------------|
Bb|-------------------1010-------------5----------5-------------------|
Gb|----7------------77----77-----------7----------6-------------------|
Db|----5-------------------------------7----------7-------------------|
Ab|-------------------------------------------------------------------|
Eb|-------------------------------------------------------------------|
  strum                                strum      strum
  3:23

  
[Chorus]

  D                     G
  So this is heartache? So this is heartache?
eb|-------------------------------------------|
Bb|-------------------------------------------|
Gb|-7-------------------4---------------------|
Db|-7-------------------5---------------------|
Ab|-5-------------------5---------------------|
Eb|---------------------3---------------------|
  strummmmmm
  3:34

  Em?                            Asus
  Hiroi atsumeta kōkai wa namida e to kawari oh baby
eb|----------------------------------------------------|
Bb|------------------------------5---------5-------5---|
Gb|------------------------------7---------6-------7---|
Db|-2----------------------------7---------7-------7---|
Ab|-2--------------------------------------------------|
Eb|----------------------------------------------------|

    D                     G
  So this is heartache? So this is heartache?
eb|-------------------------------------------|
Bb|-------------------------------------------|
Gb|-7-------------------4---------------------|
Db|-7-------------------5---------------------|
Ab|-5-------------------5---------------------|
Eb|---------------------3---------------------|

    Em?                          Asus
  Ano hi no kimi no egao wa omoide ni kawaru I miss you
eb|----------------------------------------------------|
Bb|------------------------------5---------5-------5---|
Gb|------------------------------7---------6-------7---|
Db|-2----------------------------7---------7-------7---|
Ab|-2--------------------------------------------------|
Eb|----------------------------------------------------|


[Outro]

  D  G  D  G                                                     G   D  Em? D
eb|--------------------------------------------------------------------------------|
Bb|------------14-15~-------------14-15~-------------14-15~------------------------|
Gb|-s11-12-11----------s11-12-11----------s11-12-11--------------12--11--9--7------|
Db|--------------------------------------------------------------------------------|
Ab|--------------------------------------------------------------10--9---7--5------|
Eb|--------------------------------------------------------------------------------|


************************************

| b  Bend
| ~  Vibrato
| s  Slide

************************************

            
            
Suggest correction
Creating personal tab
Creating personal tab
You can edit any tab online and save it as your Personal.

You can edit, replace or remove any tab part or add personal notes – all changes will be seen only by you.

Personal tabs can be accessed anytime from any device, even offline.
Learn more »
comments
print report bad tab
guest
You may want to rate the tab now too:
select rating
Wanna post a correction for this tab? Suggest correction