Oops, an error
Loading. Please wait.

Memories bass

754 views 6 this week
no commentswrite comment
1 2 3 4 5
3 more votes to show rating
add to favorites
×
Save as Personal and add changes to this tab that will be seen only by you. Learn more ›
×
You can save this tab as Personal to edit and correct it or add notes. All changes will be seen only by you. Learn more »
launch autoscroll
font size
0
reset
guitar tuner
edit
Autoscroll
slow
fast
+/-
esc
set tempo
stop
Author
Difficulty
Strings: 5
Turning: B E A D G (Standard)


[Intro]

0:11
G|-------------------|
D|-------------------|
A|-------------------|
E|--------7~---------|
B|--4~----------7~---|

0:16
G|---------------------------------------------------------|
D|---------------------------------------------------------|
A|---------------------------------------------------------|
E|---------------7-7--7--7--7------------------------------|
B|--4-4--4--4--4--------------7-7--7--7--7--7-7--7--7--2---|

G|---------------------------------------------------------|
D|---------------------------------------------------------|
A|---------------------------------------------------------|
E|---------------7-7--7--7--7------------------------------|
B|--4-4--4--4--4--------------7-7--7--7--7--7-7--7--7--2---|


[Verse 1]

G|---------------------------------------------------------|
D|---------------------------------------------------------|
A|---------------------------------------------------------|
E|---------------7-7--7--7--7------------------------------|
B|--4-4--4--4--4--------------7-7--7--7--7--7-7--7--7--2---|

G|---------------------------------------------------------|
D|---------------------------------------------------------|
A|---------------------------------------------------------|
E|---------------7-7--7--7--7------------------------------|
B|--4-4--4--4--4--------------7-7--7--7--7--7-7--7--7--2---|


[Pre-Chorus 1]

G|--------------------------------------------------------------------|
D|--------------------------------------------------------------------|
A|--------------------------------------------------------------------|
E|------------------7-7-7-7-7-7-7-7-----------------------------------|
B|--4-4-4-4-4-4-4-4-----------------7-7-7-7-7-7-7-7-7-7-7-7-7-7-7-7---|

G|-----------------------------------------------------------------------|
D|-----------------------------------------------------------------------|
A|-----------------------------------------------------------------------|
E|------------------7-7-7-7-7-7-7-7--------------------------------------|
B|--4-4-4-4-4-4-4-4-----------------7-7-7-7-7-7-7-7-7-7-7-7-2--2--2--2---|


[Chorus]

G|--------------------------------------------------------------------|
D|--------------------------------------------------------------------|
A|--------------------------------------------------------------------|
E|------------------7-7-7-7-7-7-7-7-----------------6-6-6-6-6-6-6-6---|
B|--4-4-4-4-4-4-4-4-----------------7-7-7-7-7-7-7-7-------------------|

G|--------------------------------------------------------------------|
D|--------------------------------------------------------------------|
A|--------------------------------------------------------------------|
E|------------------7-7-7-7-7-7-7-7-----------------------------------|
B|--4-4-4-4-4-4-4-4-----------------7-7-7-7-7-7-7-7-7-7-7-7-7-7-7-7---|

G|--------------------------------------------------------------------|
D|--------------------------------------------------------------------|
A|--------------------------------------------------------------------|
E|------------------7-7-7-7-7-7-7-7-----------------------------------|
B|--4-4-4-4-4-4-4-4-----------------7-7-7-7-7-7-7-7-7-7-7-7-2-2-2-2---|

G|--------------------------------------------------------------------|
D|--------------------------------------------------------------------|
A|--------------------------------------------------------------------|
E|------------------7-7-7-7-7-7-7-7-----------------------------------|
B|--4-4-4-4-4-4-4-4-----------------7-7-7-7-7-7-7-7-7-7-7-7-7-7-7-7---|


[Verse 2]

G|---------------------------------------------------------|
D|---------------------------------------------------------|
A|---------------------------------------------------------|
E|---------------7-7--7--7--7------------------------------|
B|--4-4--4--4--4--------------7-7--7--7--7--7-7--7--7--2---|

G|---------------------------------------------------------|
D|---------------------------------------------------------|
A|---------------------------------------------------------|
E|---------------7-7--7--7--7------------------------------|
B|--4-4--4--4--4--------------7-7--7--7--7--7-7--7--7--2---|

G|---------------------------------------------------------|
D|---------------------------------------------------------|
A|---------------------------------------------------------|
E|---------------7-7--7--7--7------------------------------|
B|--4-4--4--4--4--------------7-7--7--7--7--7-7--7--7--2---|

G|---------------------------------------------------------|
D|---------------------------------------------------------|
A|---------------------------------------------------------|
E|---------------7-7--7--7--7------------------------------|
B|--4-4--4--4--4--------------7-7--7--7--7--7-7--7--7--2---|


[Pre-Chorus 2]

G|--------------------------------------------------------------------|
D|--------------------------------------------------------------------|
A|--------------------------------------------------------------------|
E|------------------7-7-7-7-7-7-7-7-----------------------------------|
B|--4-4-4-4-4-4-4-4-----------------7-7-7-7-7-7-7-7-7-7-7-7-7-7-7-7---|

G|-----------------------------------------------------------------------|
D|-----------------------------------------------------------------------|
A|-----------------------------------------------------------------------|
E|------------------7-7-7-7-7-7-7-7--------------------------------------|
B|--4-4-4-4-4-4-4-4-----------------7-7-7-7-7-7-7-7-7-7-7-7-2--2--2--2---|


[Stop]


[Chorus]

1:46
G|--------------------------------------------------------------------|
D|--------------------------------------------------------------------|
A|--------------------------------------------------------------------|
E|------------------7-7-7-7-7-7-7-7-----------------6-6-6-6-6-6-6-6---|
B|--4-4-4-4-4-4-4-4-----------------7-7-7-7-7-7-7-7-------------------|

G|--------------------------------------------------------------------|
D|--------------------------------------------------------------------|
A|--------------------------------------------------------------------|
E|------------------7-7-7-7-7-7-7-7-----------------------------------|
B|--4-4-4-4-4-4-4-4-----------------7-7-7-7-7-7-7-7-7-7-7-7-7-7-7-7---|

G|--------------------------------------------------------------------|
D|--------------------------------------------------------------------|
A|--------------------------------------------------------------------|
E|------------------7-7-7-7-7-7-7-7-----------------------------------|
B|--4-4-4-4-4-4-4-4-----------------7-7-7-7-7-7-7-7-7-7-7-7-2-2-2-2---|

G|--------------------------------------------------------------------|
D|--------------------------------------------------------------------|
A|--------------------------------------------------------------------|
E|------------------7-7-7-7-7-7-7-7-----------------------------------|
B|--4-4-4-4-4-4-4-4-----------------7-7-7-7-7-7-7-7-7-7-7-7-7-7-7-7---|


[Stop]


[Bridge]

2:18
G|---------------------------------------------------------|
D|---------------------------------------------------------|
A|---------------------------------------------------------|
E|---------------7-7--7--7--7------------------------------|
B|--4-4--4--4--4--------------7-7--7--7--7--7-7--7--7--7---|

G|---------------------------------------------------------|
D|---------------------------------------------------------|
A|---------------------------------------------------------|
E|---------------7-7--7--7--7------------------------------|
B|--4-4--4--4--4--------------7-7--7--7--7--7-7--7--7--7---|


[ฺBreakdown]

G|------------------------------------------------------------------------------------------|
D|------------------------------------------------------------------------------------------|
A|------------------------------------------------------------------------------------------|
E|------------7-7--7--7---------------------------------7-7--7--7---------------------------|
B|--4-4--4--4-----------7-7--7--7-7-7--7--7-2-4-4--4--4-----------7-7--7--7-7-7--7--7--2~---|


[Chorus]

G|--------------------------------------------------------------------|
D|--------------------------------------------------------------------|
A|--------------------------------------------------------------------|
E|------------------7-7-7-7-7-7-7-7-----------------6-6-6-6-6-6-6-6---|
B|--4-4-4-4-4-4-4-4-----------------7-7-7-7-7-7-7-7-------------------|

G|--------------------------------------------------------------------|
D|--------------------------------------------------------------------|
A|--------------------------------------------------------------------|
E|------------------7-7-7-7-7-7-7-7-----------------------------------|
B|--4-4-4-4-4-4-4-4-----------------7-7-7-7-7-7-7-7-7-7-7-7-7-7-7-7---|

G|--------------------------------------------------------------------|
D|--------------------------------------------------------------------|
A|--------------------------------------------------------------------|
E|------------------7-7-7-7-7-7-7-7-----------------------------------|
B|--4-4-4-4-4-4-4-4-----------------7-7-7-7-7-7-7-7-7-7-7-7-2-2-2-2---|

G|--------------------------------------------------------------------|
D|--------------------------------------------------------------------|
A|--------------------------------------------------------------------|
E|------------------7-7-7-7-7-7-7-7-----------------------------------|
B|--4-4-4-4-4-4-4-4-----------------7-7-7-7-7-7-7-7-7-7-7-7-7-7-7-7---|


[Outro]

G|---------------------------------------------------------|
D|---------------------------------------------------------|
A|---------------------------------------------------------|
E|---------------7-7--7--7--7------------------------------|
B|--4-4--4--4--4--------------7-7--7--7--7--7-7--7--7--2---|

G|--------------------------------------------------------------|
D|--------------------------------------------------------------|
A|--------------------------------------------------------------|
E|---------------7-7--7--7--7-----------------------------------|
B|--4-4--4--4--4--------------7-7--7--7--7--7-7--7--7--2-2-2~---|


************************************

| ~   Vibrato

************************************



▬▬▬▬▬▬▬▬▬▬ஜ۩۞۩ஜ▬▬▬▬▬▬▬▬▬▬▬▬▬▬ 
Band:   ONE OK ROCK

Song:   Memories

Album:  35xxxv

Year:   2015
▬▬▬▬▬▬▬▬▬▬ஜ۩۞۩ஜ▬▬▬▬▬▬▬▬▬▬▬▬▬▬ 

            
            
Suggest correction
Creating personal tab
Creating personal tab
You can edit any tab online and save it as your Personal.

You can edit, replace or remove any tab part or add personal notes – all changes will be seen only by you.

Personal tabs can be accessed anytime from any device, even offline.
Learn more »
Give kudos to tab author, rate the tab!
1 2 3 4 5
comments
print report bad tab
guest
You may want to rate the tab now too:
select rating
Wanna post a correction for this tab? Suggest correction