Oops, an error
Loading. Please wait.

Secrets chords

version 3
version 3

Interactive

96,871 views 168 this week
3 commentsread comments
1 2 3 4 5
x 35
add to favorites
×
Save as Personal and add changes to this tab that will be seen only by you. Learn more ›
×
You can save this tab as Personal to edit and correct it or add notes. All changes will be seen only by you. Learn more »
launch autoscroll
font size
0
reset
transpose
0
reset
display chords
guitar tuner
edit
Autoscroll
slow
fast
+/-
esc
set tempo
stop
Strumming
There is no strumming pattern for this song yet. and get +5 IQ
Capo on 7th fret

[Intro]
   G                               Bm
E|------------------------------------------------------------------|
B|------------------------------------------------------------------|
G|------------------------------------------------------------------|
D|-----0---0-----------0---0-----------0---0-----------0---0--------|
A|---2---2---2---2---2---2---2---2---2---2---2---2---2---2---2---2--|
E|-3-----------3---3-----------3---2-----------2---2-----------2----|

   Em                              C
E|------------------------------------------------------------------|
B|------------------------------------------------------------------|
G|------------------------------------------------------------------|
D|-----2---2-----------2---2-----------2---2-----------2---2--------|
A|---2---2---2---2---2---2---2---2---3---3---3---3---3---3---3---3--|
E|-0-----------0---0-----------0---0-----------0---0-----------0----|

[Verse 1]
               G
I need another story 
                  Bm
Something to get off my chest 
                    Em
My life gets kinda boring 
                       C
Need something that I can confess 
             G
'Til all my sleeves are stained red 
              Bm
From all the truth that I've said 
           Em
Come by it honestly I swear 
                   C
Thought you saw me wink, no 
                  
I've been on the brink, so 

[Chorus]       
                 G
Tell me what you want to hear 
                     Bm
Something that were like those years 
                Em
Sick of all the insincere 
                  C
So I'm gonna give all my secrets away 
G                             Bm
This time, don't need another perfect line
                             Em 
Don't care if critics never jump in line 
               C      
I'm gonna give all my secrets away 

[Verse 2]
G                      Bm
My god, amazing how we got this far 
                        Em 
It's like we're chasing all those stars 
                    C
Who's driving shiny big black cars            
         G
And everyday I see the news 
                         
All the problems that we could solve 
             Bm
And when a situation rises                   
Just write it into an album 
         Em
Singing straight, too cold 
                    C
But I don't really like my flow, no, so 

[Chorus]        
                 G
Tell me what you want to hear 
                     Bm
Something that were like those years 
                Em
Sick of all the insincere 
                  C
So I'm gonna give all my secrets away 
G                             Bm
This time, don't need another perfect line
                             Em 
Don't care if critics never jump in line 
               C      
I'm gonna give all my secrets away 

[Bridge]
   G                               Bm
E|------------------------------------------------------------------|
B|------------------------------------------------------------------|
G|------------------------------------------------------------------|
D|-----0---0-----------0---0-----------0---0-----------0---0--------|
A|---2---2---2-------2---2-----------2---2---2-------2---2----------|
E|-3-----------3---3---------------2-----------2---2----------------|

   Em                              C
E|------------------------------------------------------------------|
B|------------------------------------------------------------------|
G|------------------------------------------------------------------|
D|-----2---2-----------2---2-----------2---2-----------2---2--------|
A|---2---2---2-------2---2-----------3---3---3-------3---3----------|
E|-0-----------0---0---------------0-----------0---0----------------|

    G                         Bm
Oooh, got no reason, got not shame 
                    Em
Got no family I can blame 
                      C
Just don't let me disappear 
                  
I'mma tell you everything 

[Chorus]        
                 G
Tell me what you want to hear 
                     Bm
Something that were like those years 
                Em
Sick of all the insincere 
                  C
So I'm gonna give all my secrets away 
G                             Bm
This time, don't need another perfect line
                             Em 
Don't care if critics never jump in line 
               C      
I'm gonna give all my secrets away  2x

[Outro]
   G                               Bm
E|------------------------------------------------------------------|
B|------------------------------------------------------------------|
G|------------------------------------------------------------------|
D|-----0---0-----------0---0-----------0---0-----------0---0--------|
A|---2---2---2-------2---2-----------2---2---2-------2---2----------|
E|-3-----------3---3---------------2-----------2---2----------------|

   Em                              C
E|------------------------------------------------------------------|
B|------------------------------------------------------------------|
G|------------------------------------------------------------------|
D|-----2---2-----------2---2-----------2---2-----------2---2--------|
A|---2---2---2-------2---2-----------3---3---3-------3---3----------|
E|-0-----------0---0---------------0-----------0---0----------------|  2x
                                   All.....my......secrets.....away 

            
            
Suggest correction
Creating personal tab
Creating personal tab
You can edit any tab online and save it as your Personal.

You can edit, replace or remove any tab part or add personal notes – all changes will be seen only by you.

Personal tabs can be accessed anytime from any device, even offline.
Learn more »
comments
print report bad tab
3 comments total.
0 reply
Bransonn 10 Dec 07, 2010 04:37 PM

you can actually do this on the second fret. but like, move it up a string so like
E|------------------------------------------------------------------------|
B|------------------------------------------------------------------------|
G|-----0---0-----------0---0------------0---0-----------0---0----------|
D|---2---2---2---2---2---2---2---2---2---2---2---2---2---2---2---2--|
A|-3-----------3---3------------3---2------------2---2-----------2-----|
E|------------------------------------------------------------------------|

E|------------------------------------------------------------------------|
B|------------------------------------------------------------------------|
G|-----2---2------------2---2------------2---2------------2---2--------|
D|---2---2---2---2---2---2---2---2---3---3---3---3---3---3---3---3--|
A|-0-----------0---0------------0---0------------0---0-----------0-----|
E|------------------------------------------------------------------------|

0 reply
eaglefighterf 10 Jul 25, 2014 12:20 PM

Lack of accuracy.

0 reply
cmiklaucic 10 Jun 20, 2016 12:46 PM

The Bm should be a D

guest
You may want to rate the tab now too:
select rating
Wanna post a correction for this tab? Suggest correction