Oops, an error
Loading. Please wait.

Secrets tab

version 2
version 2

Interactive

126,690 views 24 this week
3 commentsread comments
1 2 3 4 5
x 60
add to favorites
×
Save as Personal and add changes to this tab that will be seen only by you. Learn more ›
×
You can save this tab as Personal to edit and correct it or add notes. All changes will be seen only by you. Learn more »
launch autoscroll
font size
0
reset
how to read this tab
guitar tuner
edit
Autoscroll
slow
fast
+/-
esc
set tempo
stop
Difficulty
E|------------------------------------------------------------------|
B|------------------------------------------------------------------|
G|-----2---2-----------2---2-----------2---2-----------2---2--------|
D|---4---4---4---4---4---4---4---4---4---4---4---4---4---4---4---4--|
A|-5-----------5---5-----------5---4-----------4---4-----------4----|
E|------------------------------------------------------------------|

E|------------------------------------------------------------------|
B|------------------------------------------------------------------|
G|-----4---4-----------4---4-----------4---4------------------------|
D|---4---4---4---4---4---4---4---4---------------------5---5--------|
A|-2-----------2---2-----------2-----5---5---5---5---5---5---5---5--|
E|---------------------------------3-----------3---3-----------3----|

            
            
Suggest correction
Creating personal tab
Creating personal tab
You can edit any tab online and save it as your Personal.

You can edit, replace or remove any tab part or add personal notes – all changes will be seen only by you.

Personal tabs can be accessed anytime from any device, even offline.
Learn more »
comments
print report bad tab
3 comments total.
0 reply
chicholoma 105 Dec 11, 2010 03:48 PM

Really nice tab!

+2 reply
PagudpudRocker 154 Nov 06, 2011 04:27 PM

you'll be requring long fingers to play this, otherwise, you will break your phalanges. :)
I think it's better if you play it like this:

E|------------------------------------------------|
B|------------------------------------------------|
G|------------------------------------------------|
D|---------7-----7--------------------------------|
A|------9-----9------9--------9-------------------|
E|--10------------------10------------------------|

And I'm sure you can figure out the rest. Just a suggestion though, nice tab btw.

+2 reply
CinciMusician 52 Aug 21, 2013 06:55 PM

I was messing around with this and was playing with distortion and found what I think is an easier way to play the first 2 chords pickings:

e------------------------------------------------------------------
B------------------------------------------------------------------
G------------------------------------------------------------------
D----4-7-4-7-4---4---4-7-4-7-4---4---4-7-4-7-4---4---4-7-4-7-4---4-
A--5-----------5---5-----------5---4-----------4---4-----------4---
E------------------------------------------------------------------

Then the last 2 I think are easy enough. Hope this helps!

guest
Wanna post a correction for this tab? Suggest correction