Oops, an error
Loading. Please wait.

Bad Town bass

version 2
version 2

Whole song

Interactive

1,904 views 3 this week
no commentswrite comment
1 2 3 4 5
2 more votes to show rating
add to favorites
×
Save as Personal and add changes to this tab that will be seen only by you. Learn more ›
×
You can save this tab as Personal to edit and correct it or add notes. All changes will be seen only by you. Learn more »
launch autoscroll
font size
0
reset
guitar tuner
edit
Autoscroll
slow
fast
+/-
esc
set tempo
stop
Author
Difficulty
-------------------------------------------------------------------------------
			      BAD TOWN - Operation Ivy
-------------------------------------------------------------------------------


***NOTE******NOTE******NOTE******NOTE******NOTE******NOTE******NOTE******NOTE**
This is the 2007 album version.
The original may be different and thats why noone could post a proper one yet.
oh.. and LISTEN and PLAY before you comment or rate.. and have fun.. cheers
xxSID
***NOTE******NOTE******NOTE******NOTE******NOTE******NOTE******NOTE******NOTE**

Tuning: standard

W - whole
H - half
Q - quarter
E - 8th
S - 16th
. - note dotted
g - grace note
s - slide

play order:
Intro
Verse
Chorus
Verse
Chorus
Verse during sax solo
Chorus
Out chorus


Intro

     W                   W                   W                 
G||-------------------|-------------------|-------------------|
D||-------------------|-------------------|-------------------|
A||-------------------|-------------------|-------------------|
E||-------------------|-------------------|-------------------|


  W                   W                   W                   W                 
-------------------|-------------------|-------------------|-------------------|
-------------------|-------------------|-------------------|-------------------|
-------------------|-------------------|-------------------|-------------------|
-------------------|-------------------|-------------------|-------------------|


  W                   Q    Q      E  E  S S E     Q    Q    E  E  E  E   
-------------------|------------3g3--3--3-2-0--|------------------------|
-------------------|--3------------------------|------------------------|
-------------------|---------------------------|--3---------3--3--1--0--|
-------------------|---------------------------|------------------------|


  Q    Q      E  E  S S E     Q    Q    Q    Q     
------------3g3--3--3-2-0--|----------------------|
--3------------------------|----------------------|
---------------------------|--3---------3----1----|
---------------------------|----------------------|

Verse

  Q    Q      E  E  S S E   
------------3g3--3--3-2-0--|
--3------------------------|
---------------------------|
---------------------------|


  Q    Q    E  E  E  E     Q    Q      E  E  S S E     Q    Q    Q    Q     
------------------------|------------3g3--3--3-2-0--|----------------------|
------------------------|--3------------------------|----------------------|
--3---------3--3--1--0--|---------------------------|--3---------3----1----|
------------------------|---------------------------|----------------------|


  Q    Q      E  E  S S E     Q    Q    E  E  E  E   
------------3g3--3--3-2-0--|------------------------|
--3------------------------|------------------------|
---------------------------|--3---------3--3--1--0--|
---------------------------|------------------------|


  Q    Q      E  E  S S E     Q    Q    Q    Q     
------------3g3--3--3-2-0--|----------------------|
--3------------------------|----------------------|
---------------------------|--3---------3----1----|
---------------------------|----------------------|

Chorus

  Q    E  Q    E   Q
---------------2s--3----|
----------3-------------|
--1---------------------|
------------------------|
     

  Q.     S S E  E  E  E     Q    E  Q     Q.        E  E  E  E  E  E  E  E   
---------0-2-2--0--------|-----------------------|-----0--2--3--2--0--------|
--3----------------3--0--|----------5s----7------|--3-----------------3--0--|
-------------------------|--3--------------------|--------------------------|
-------------------------|-----------------------|--------------------------|


  Q    E  E  Q     Q       Q.     S S E  E  E  E     Q    E  Q     Q.      
-------------2s----3----|---------0-2-2--0--------|-----------------------|
----------3-------------|--3----------------3--0--|----------5s----7------|
--1---------------------|-------------------------|--3--------------------|
------------------------|-------------------------|-----------------------|


  Q    E  E   Q    Q       W                   E  E  E  E  E  E  E  E   
------------------------|-------------------|--5--5--3--3--2--2--0--0--|
--3-------3s--5----5----|-------------------|--------------------------|
------------------------|--3----------------|--------------------------|
------------------------|-------------------|--------------------------|

Out Chorus

  Q    Q    H           W                   W                 
---------------------|-------------------|-------------------|
---------------------|-------------------|-------------------|
--1------------------|-------------------|-------------------|
---------------------|-------------------|-------------------|


  W                   Q    Q    H           Q    Q    H         
-------------------|---------------------|---------------------|
-------------------|---------------------|--3------------------|
-------------------|--1------------------|---------------------|
-------------------|---------------------|---------------------|


  Q    Q    H           Q    Q    H           Q    E  Q    E   Q     
---------------------|---------------------|---------------2s--3----|
---------------------|--3------------------|----------3-------------|
--3------------------|---------------------|--1---------------------|
---------------------|---------------------|------------------------|


  Q.     S S E  E  E  E     Q    E  Q     Q.        E  E  E  E  E  E  E  E   
---------0-2-2--0--------|-----------------------|-----0--2--3--2--0--------|
--3----------------3--0--|----------5s----7------|--3-----------------3--0--|
-------------------------|--3--------------------|--------------------------|
-------------------------|-----------------------|--------------------------|


  Q    E  Q    E   Q       Q.     S S E  E  E  E     Q    E  Q     Q.      
---------------2s--3----|---------0-2-2--0--------|-----------------------|
----------3-------------|--3----------------3--0--|----------5s----7------|
--1---------------------|-------------------------|--3--------------------|
------------------------|-------------------------|-----------------------|


  Q    E  E   Q    Q       W                   E  E  E  E  E  E  E  E   
------------------------|-------------------|--5--5--3--3--2--2--0--0--|
--3-------3s--5----5----|-------------------|--------------------------|
------------------------|--3----------------|--------------------------|
------------------------|-------------------|--------------------------|


  H        H          
--------------------||
--------------------||
--------------------||
--1-----------------||


            
            
Suggest correction
Creating personal tab
Creating personal tab
You can edit any tab online and save it as your Personal.

You can edit, replace or remove any tab part or add personal notes – all changes will be seen only by you.

Personal tabs can be accessed anytime from any device, even offline.
Learn more »
Give kudos to tab author, rate the tab!
1 2 3 4 5
comments
print report bad tab
guest
You may want to rate the tab now too:
select rating
Wanna post a correction for this tab? Suggest correction