Oops, an error
Loading. Please wait.

Face That Screams bass

112 views 1 this week
no commentswrite comment
1 2 3 4 5
3 more votes to show rating
add to favorites
×
Save as Personal and add changes to this tab that will be seen only by you. Learn more ›
×
You can save this tab as Personal to edit and correct it or add notes. All changes will be seen only by you. Learn more »
launch autoscroll
font size
0
reset
guitar tuner
edit
Autoscroll
slow
fast
+/-
esc
set tempo
stop
Author
This song has kinda bad recording quality so it may actually be played a fret higher but 
poor quality makes it sound roughly a fret lower

Intro/Chorus
G|-----------------------------------|
D|----------------------------42-----|
A|4-4-1-------1-4-21--4-4-1-----41-4-|
E|-----2-4--4-------4------2-4-------| x2

Verse
G|----------------------------    |-----------------------------|
D|--------6-8-----------------    |-----------------------------|
A|4-4-4-4---------------------    |-----------------------------|
E|------------6-6-6-6-4-4-4-4- x3 |2-2-2-2-2-2-2-2-2-2-2-2-2-2--| x1

G|----------------------------    |-----------------------------|
D|--------6-8-----------------    |-----------------------------|
A|4-4-4-4---------------------    |------------------------6-8--|
E|------------6-6-6-6-4-4-4-4- x3 |2-2-2-2-4-4-4-4-6-6-6-6------| x1

Repeat Chorus
Repeat Verse
Repeat Chorus

Outro
G|---6-------------------------------------|
D|--6-6------------------------22-44-66-44-|
A|4-----4--1-1-----------11-44-------------|
E|-------------4-4-22-44-------------------|

G|--6-46-4---------------------------------|
D|----------------------------------4------|
A|4--------1-1-----------11-22-44-6--6-4---|
E|-------------4-4-22-44-----------------6-|

G|---6664----------------------------------|
D|-----------------------------22-44-66-44-|
A|4--------1-1-----------11-44-------------|
E|-------------4-4-22-44-------------------|

G|---6664----------------------------------|
D|--------------------------------22-44-66-|
A|4--------1-1-----------11-22-44----------|
E|-------------4-4-22-44-------------------|

G|---------------------|
D|---------------------|
A|4~----1~-------------|
E|---------4~-2~-------|

G|---
D|---
A|-4-
E|---


An old Op Ivy song but a real catchy one.

            
            
Suggest correction
Creating personal tab
Creating personal tab
You can edit any tab online and save it as your Personal.

You can edit, replace or remove any tab part or add personal notes – all changes will be seen only by you.

Personal tabs can be accessed anytime from any device, even offline.
Learn more »
Give kudos to tab author, rate the tab!
1 2 3 4 5
comments
print report bad tab
guest
You may want to rate the tab now too:
select rating
Wanna post a correction for this tab? Suggest correction