Oops, an error
Loading. Please wait.

To Rid The Disease bass

version 1
version 1

Whole song

Interactive

by Opeth
1,121 views 3 this week
5 commentsread comments
1 2 3 4 5
2 more votes to show rating
add to favorites
×
Save as Personal and add changes to this tab that will be seen only by you. Learn more ›
×
You can save this tab as Personal to edit and correct it or add notes. All changes will be seen only by you. Learn more »
launch autoscroll
font size
0
reset
guitar tuner
backing track
0:00
0:00
edit
Autoscroll
slow
fast
+/-
esc
set tempo
stop
Author
Difficulty
For the Intro hit the e string in time. you have to listen to the song to know where it 
I have tried my best on this but i know not all of the notes are right. they are very 
though and if played with the song, they do mix.

Intro

G|------------------------------------------|
D|------------------------------------------|
A|------------------------------------------|
E|--0---------------------------------------|

Verse

G|------------------------------------------|
D|------------------------0h2---------------|
A|---------------------0h2------------------|
E|-0----0----0-----0-0----------------------|x5

Chorus

G|----------------------------------------------------------|
D|----------------------------------------------------------|
A|------------------5--7------------------------------------|
E|--7----5---3-333------------------------------------------|x4


Verse

G|------------------------------------------|
D|---------------------0h2------------------|
A|---------------------0h2------------------|
E|-0----0----0-----0-0----------------------|x10

Chorus

G|----------------------------------------------------------|
D|----------------------------------------------------------|
A|------------------5--7------------------------------------|
E|--7----5---3-333------------------------------------------|x8

Guitar Solo

G|------------------------------------------------------------------|
D|------------------------------------------------------------------|
A|------------------------------------------------------------------|
E|--7-----33-3-----33-3---55-5---00-0----1-2-3----------------------|x1

Piano Bridge

G|-------------------------------------------------------------|
D|-------------------------------------------------------------|
A|----------------------12-------------------------------------|
E|-5--7---12----5---7------12----------------------------------|x2


Guitar Bridge

G|----------------------------------------------------------------|
D|----------------------------------------------------------------|
A|----------------------------------------------------------------|
E|--0---3---5/12---5---3---1---0----------------------------------|x4

Piano Bridge

G|-------------------------------------------------------------|
D|-------------------------------------------------------------|
A|----------------------12-------------------------------------|
E|-5--7---12----5---7------12----------------------------------|Fade Out

            
            
Suggest correction
Creating personal tab
Creating personal tab
You can edit any tab online and save it as your Personal.

You can edit, replace or remove any tab part or add personal notes – all changes will be seen only by you.

Personal tabs can be accessed anytime from any device, even offline.
Learn more »
Give kudos to tab author, rate the tab!
1 2 3 4 5
comments
print report bad tab
5 comments total. Showing first comments.
0 reply
filthylittleboy 20 Feb 23, 2008 02:16 PM

uhm it's in G not E

0 reply
Bassist-E 40 May 18, 2008 01:04 AM

you're right, it's in G

0 reply
xmarienx 115 Feb 02, 2009 03:10 PM

lol dude this song is not hard to translate i could remake this tab myself and it would sound much better, nice try though

guest
You may want to rate the tab now too:
select rating
Wanna post a correction for this tab? Suggest correction