Oops, an error
Loading. Please wait.

Obey The Moderator tab

576 views 1 this week
1 commentread comment
1 2 3 4 5
1 last vote to show rating
add to favorites
×
Save as Personal and add changes to this tab that will be seen only by you. Learn more ›
×
You can save this tab as Personal to edit and correct it or add notes. All changes will be seen only by you. Learn more »
launch autoscroll
font size
0
reset
how to read this tab
guitar tuner
edit
Autoscroll
slow
fast
+/-
esc
set tempo
stop
Author
Difficulty
-------------------------------------------------------------------------------
                             OBEY THE MODERATOR - Optimus Rhyme
-------------------------------------------------------------------------------
Tabbed by: EddyMorino
Email: EddyMorino@yahoo.com

Tuning: EADGBe

Verse Riff:

e|---------------------------------------------------------------------------|
B|--------12-12----------------12-12-----------------------------------------|
G|---------------------------------------------------------------------------|
D|-7/9-9--------10------7/9-9--------10--------------------------------------|
A|---------------------------------------------------------------------------|
E|---------------------------------------------------------------------------|

On "We gotta get a few things straight" play this and then continue with verse riff

e|------------------------------------------------------------------------------------|
B|--------------12-12-----------------------------------------------------------------|
G|------------------------------------------------------------------------------------|
D|-10------7/9--------10--------------------------------------------------------------|
A|------------------------------------------------------------------------------------|
E|------------------------------------------------------------------------------------|

Chorus riff (Starts on "Confident, Cocky, the Cubicle Jocky"):

e|--------------------------------------------------------------------------------------------------|
B|--------------------------------------------------------------------------------------------------|
G|-12-12-12-12-12-12-12-12-11-11-11-11-11-11-11-11-14-14-14-14-14-14-14-14-9-9-9-9-9-9-9-9----------|
D|--------------------------------------------------------------------------------------------------|
A|--------------------------------------------------------------------------------------------------|
E|--------------------------------------------------------------------------------------------------|

End chorus riff with this:

e|-----------------------14-----|
B|------------------------------|
G|-11--12-11--12-11---11----11--|
D|------------------------------|
A|------------------------------|
E|------------------------------|


Bridge (Starting on "I see that you are new to the community...):

e|---------------------------------------------------------------------------|
B|---------------------------------------------------------------------------|
G|-12-12-12-12-12-12-12-12-12-12-12-12-12-12-12-12---------------------------|
D|---------------------------------------------------------------------------|
A|---------------------------------------------------------------------------|
E|---------------------------------------------------------------------------|


Organization:
Verse
Chorus
Verse
Chorus
Bridge
Chorus

Lyrics:

"I agree to accept the following terms and regulations put forth by the admnistrators of 
community and blah blah blah... I accept."

Hey
Listen up newbie, we gotta get a few things straight
Who these people are, that can wait
This my board, my world, my space
I wrote every rule you gotta read 'em ok?
Cool, I guess that's it man we straight
And if you need something I'll be up kinda late
Like two, see that's when it gets bad
People start flaming and everybody's mad
That's when I gotta bust out the ban
Trust me man, some of these people just can't stand
One another, so I gotta cover up a scandal
Nah dude I can't let you know my AIM handle

Drop it, I'll grab your IP and block it
If you can't stay on topic, you got it?
If I wanna lock it there's no way you can stop me
Confident, cocky, the cubicle jockey

Obey the moderator, create a state of calm
Scan sentences and announce who's wrong
You are the troller, one week ban
I know your other screen name man
Obey the moderator, I cater to the regs
Hook 'em up with handles and float all their threads
You are the liar, permanent ban
I'll nullify your password man

(Why don't you tell 'em about your sig kid?
Yeah, yeah! Tell 'em about your sig!)

My sig's kinda big but it's tasteful
Might blink a bit, 80k, there's no way that I be wasteful
People get hateful but hey it ain't new to me
It can get crazy, in this community
Dude you gotta unlock your caps
Never argue, I'm gonna walk with you straight to the FAQs
Even then they never relax, it's all grudges
From six months back, still nobody budges
The worst? Hackers, scum of the earth
Attack us and laugh us we back up with work
But whatever, I got an upgrade up my sleeve
Trade off sleep for new security
That's part of the job I don't mind it
And if you break a rule better believe that I'll be the one to find it
I'm tracking down every last duplicate account
I'm on my way to admin, there's never been a doubt

I see that you are new to the community and soon to be
A troubling influence so you really should be listening

Obey the moderator, create a state of calm
Scan sentences and announce who's wrong
You are the troller, one week ban
I know your other screen name man
Obey the moderator, I cater to the regs
Hook 'em up with handles and float all the threads
You are the liar, permanent ban
I'll nullify your password man


| /  slide up
| \  slide down
| h  hammer-on
| p  pull-off
| ~  vibrato
| +  harmonic
| x  Mute note
===============================================================================

            
            
Suggest correction
Creating personal tab
Creating personal tab
You can edit any tab online and save it as your Personal.

You can edit, replace or remove any tab part or add personal notes – all changes will be seen only by you.

Personal tabs can be accessed anytime from any device, even offline.
Learn more »
Give kudos to tab author, rate the tab!
1 2 3 4 5
comments
print report bad tab
1 comment total.
0 reply
EddyMorino 100 May 22, 2008 01:14 PM

One small correction:

This is the full chorus:

e|--------------------------------------------------------------------------------------------------|
B|--------------------------------------------------------------------------------------------------|
G|-12-12-12-12-12-12-12-12-11-11-11-11-11-11-11-11-14-14-14-14-14-14-14-14-9-9-9-9-9-9-9-9----------|
D|--------------------------------------------------------------------------------------------------|
A|--------------------------------------------------------------------------------------------------|
E|--------------------------------------------------------------------------------------------------|

e|----------------------------------------------------------------------------------------------------------|
B|----------------------------------------------------------------------------------------------------------|
G|-12-12-12-12-12-12-12-12-11-11-11-11-11-11-11-11-14-14-14-14-14-14-14-14-11-11-11-11-11-11-11-11----------|
D|----------------------------------------------------------------------------------------------------------|
A|----------------------------------------------------------------------------------------------------------|
E|----------------------------------------------------------------------------------------------------------|

e|--------------------------------------------------------------------------------------------------|
B|--------------------------------------------------------------------------------------------------|
G|-12-12-12-12-12-12-12-12-11-11-11-11-11-11-11-11-14-14-14-14-14-14-14-14-9-9-9-9-9-9-9-9----------|
D|--------------------------------------------------------------------------------------------------|
A|--------------------------------------------------------------------------------------------------|
E|--------------------------------------------------------------------------------------------------|

e|-----------------------------------------------------------------------------------------------14----|
B|-----------------------------------------------------------------------------------------------------|
G|-12-12-12-12-12-12-12-12-11-11-11-11-11-11-11-11-14-14-14-14-14-14-14-14-11--12-11--12-11---11----11-|
D|-----------------------------------------------------------------------------------------------------|
A|-----------------------------------------------------------------------------------------------------|
E|-----------------------------------------------------------------------------------------------------|

guest
You may want to rate the tab now too:
select rating
Wanna post a correction for this tab? Suggest correction