Oops, an error
Loading. Please wait.

Heaven Knows This Angel Has Flown tab

version 1
version 1

Whole song

17,420 views 12 this week
2 commentsread comments
1 2 3 4 5
x 4
add to favorites
×
Save as Personal and add changes to this tab that will be seen only by you. Learn more ›
×
You can save this tab as Personal to edit and correct it or add notes. All changes will be seen only by you. Learn more »
launch autoscroll
font size
0
reset
how to read this tab
guitar tuner
edit
Autoscroll
slow
fast
+/-
esc
set tempo
stop
Heaven Knows (This Angel Has Flown) - Orange and Lemons
Tabbed by: Jejeman Arrupe
Email: jjaspio@yahoo.com

A2: x02200

PIANO INTRO:
e|-2-4-2---2---|-4-7-7/9-7-4-2-|
B|-2-----2-2---|-5-------4-4-2-|
G|-2-------2---|-5-------4-4-2-|
D|-------------|---------------|
A|-------------|---------------|
E|-------------|---------------|


INTRO:
Gtr I
E-A2 x4

Gtr II
e|-------4-4---|-------------|\
B|-2/4-------4-|-2-----------| \
G|-----4-------|-------------|  \   2
D|-------------|-------------|  / times
A|-------------|-------------| /
E|-------------|-------------|/

e|-------4-4---|-------------|---------7---|---------5---|
B|-2/4-------4-|-2-0-2-------|-------5-----|-------5-----|
G|-----4-------|-------------|-4h6p4-------|-4h6p4-------|
D|-------------|-------------|-------------|-------------|
A|-------------|-------------|-------------|-------------|
E|-------------|-------------|-------------|-------------|


VERSE:
Gtr I
E-A2  x4

There are times when I'm lying in my bed
how I bellow and cry from this stupid game
and my eyes are like windshields on a rainy day
almost rubbed-down, swelling as I keep on



Gtr I
G#m-A-G#m-F#m-E

Digging my face in these cold hands of mine
Heaven knows how embittered I am



CHORUS:
Gtr I
A-G#m-F#m-E

Gtr II
e|---4-5-4-7---|---4-5-4-7---|---4-5-4-7---|-4-5-4-7/9-7-|
B|-------------|-------------|-------------|-------------|
G|-------------|-------------|-------------|-------------|
D|-------------|-------------|-------------|-------------|
A|-------------|-------------|-------------|-------------|
E|-------------|-------------|-------------|-------------|
     flown..         me..       drunken..      ..ery..

'Cause this angel has flown away from me
leaving me in drunken misery



Gtr I
A-G#m-F#m-E

Gtr II
e|---9-12-11--|--11-14-12-|---9-12-11--|---9-12-11--|
B|--10-10-10--|--12-12-12-|---9-12-11--|---9-12-11--|
G|------------|-----------|------------|------------|
D|------------|-----------|------------|------------|
A|------------|-----------|------------|------------|
E|------------|-----------|------------|------------|   
    clipped..     made..       all..      ..ty..

i should have clipped her wings
and made her mine for all eternity



Gtr I
A-G#m-F#m-E

Gtr II
e|---4-5-4-7---|---4-5-4-7---|---4-5-4-7---|-4-5-4-7/9-7-|
B|-------------|-------------|-------------|-------------|
G|-------------|-------------|-------------|-------------|
D|-------------|-------------|-------------|-------------|
A|-------------|-------------|-------------|-------------|
E|-------------|-------------|-------------|-------------|
     flown..         me..      strength..       free..

now this angel has flown away from me
thought I had the strength to set her free



Gtr I
A-G#m-F#m-F#m-Am-Am

Gtr II
e|---9-12-11--|--11-14-12-|-14-------14-------|-14-------14-------|
B|--10-10-10--|--12-12-12-|----14-------14----|----14-------14----|
G|------------|-----------|-------14-------14-|-------14-------14-|
D|------------|-----------|-------------------|-------------------|
A|------------|-----------|-------------------|-------------------|
E|------------|-----------|-------------------|-------------------|  
     did..         love..          will..             find..      

e|-17-------17-------|-17-------17-------|
B|----17-------17----|----17-------17----|
G|-------17-------17-|-------17-------17-|
D|-------------------|-------------------|
A|-------------------|-------------------|
E|-------------------|-------------------|
      home..         me..

i did what I did because I love her so
will she ever find her way back home to me, ahh..




Gtr I
E-A2 x2

Gtr II
e|-----------0-|-------------|---------7---|---------5---|
B|---2/4-4-4---|-4-0-2-------|-------5-----|-------5-----|
G|-------------|-------------|-4h6p4-------|-4h6p4-------|
D|-------------|-------------|-------------|-------------|
A|-------------|-------------|-------------|-------------|
E|-------------|-------------|-------------|-------------|



VERSE:
Gtr I
E-A2 x2

Iím so tired, I feel like catching forty-winks
being up all night in this elbow-room that


Gtr I
Am-E-A2-E-A2     

puts me in a trance
where hopes and dreams come true

Gtr I
E-A2 x2

now, my lips are burning and my 
eyes are hurting

Gtr I
G#m-A-G#m-A-G#m-F#m-E

from these fumes I make, still I light another cigarette
just to pass my time, oh, heaven knows how embittered I am


CHORUS:
Gtr I
A-G#m-F#m-E

Gtr II
e|---4-5-4-7---|---4-5-4-7---|---4-5-4-7---|-4-5-4-7/9-7-|
B|-------------|-------------|-------------|-------------|
G|-------------|-------------|-------------|-------------|
D|-------------|-------------|-------------|-------------|
A|-------------|-------------|-------------|-------------|
E|-------------|-------------|-------------|-------------|
     flown..         me..       drunken..      ..ery..

'Cause this angel has flown away from me
leaving me in drunken misery



Gtr I
A-G#m-F#m-E

Gtr II
e|---9-12-11--|--11-14-12-|---9-12-11--|---9-12-11--|
B|--10-10-10--|--12-12-12-|---9-12-11--|---9-12-11--|
G|------------|-----------|------------|------------|
D|------------|-----------|------------|------------|
A|------------|-----------|------------|------------|
E|------------|-----------|------------|------------|   
    clipped..     made..       all..      ..ty..

i should have clipped her wings
and made her mine for all eternity



Gtr I
A-G#m-F#m-E

Gtr II
e|---4-5-4-7---|---4-5-4-7---|---4-5-4-7---|-4-5-4-7/9-7-|
B|-------------|-------------|-------------|-------------|
G|-------------|-------------|-------------|-------------|
D|-------------|-------------|-------------|-------------|
A|-------------|-------------|-------------|-------------|
E|-------------|-------------|-------------|-------------|
     flown..         me..      strength..       free..

now this angel has flown away from me
thought I had the strength to set her free



Gtr I
A-G#m-F#m-F#m-Am-Am

Gtr II
e|---9-12-11--|--11-14-12-|-14-------14-------|-14-------14-------|
B|--10-10-10--|--12-12-12-|----14-------14----|----14-------14----|
G|------------|-----------|-------14-------14-|-------14-------14-|
D|------------|-----------|-------------------|-------------------|
A|------------|-----------|-------------------|-------------------|
E|------------|-----------|-------------------|-------------------|  
     did..         love..          will..             find..      

e|-17-------17-------|-17-------17-------|
B|----17-------17----|----17-------17----|
G|-------17-------17-|-------17-------17-|
D|-------------------|-------------------|
A|-------------------|-------------------|
E|-------------------|-------------------|
      home..         me..

i did what I did because I love her so
will she ever find her way back home to me, ahh..

END (one strum each):
G#m F#m A E


Legend:
| /  slide up
| \  slide down
| h  hammer-on
| p  pull-off
| ~  vibrato
| +  harmonic
| x  Mute note
===============================================================================

            
            
Suggest correction
Creating personal tab
Creating personal tab
You can edit any tab online and save it as your Personal.

You can edit, replace or remove any tab part or add personal notes – all changes will be seen only by you.

Personal tabs can be accessed anytime from any device, even offline.
Learn more »
comments
print report bad tab
2 comments total.
0 reply
eheads22 72 Oct 20, 2010 05:08 AM

nice tab.. galing.. accurate

0 reply
guitARCHER_ad 10 Mar 11, 2011 08:56 PM

mali mali!!!! argh.
intro palang dapat
imbes na 444
5- 7- 8 - 7
5
5
un

guest
You may want to rate the tab now too:
select rating
Wanna post a correction for this tab? Suggest correction