Oops, an error
Loading. Please wait.

The Shadow Of Summer bass

22 views 1 this week
no commentswrite comment
1 2 3 4 5
3 more votes to show rating
add to favorites
×
Save as Personal and add changes to this tab that will be seen only by you. Learn more ›
×
You can save this tab as Personal to edit and correct it or add notes. All changes will be seen only by you. Learn more »
launch autoscroll
font size
0
reset
guitar tuner
edit
Autoscroll
slow
fast
+/-
esc
set tempo
stop
Author
Difficulty
Tabbed by: 6METAL6BASSIST6
E-mail: petergriffinav@gmail.com

Tuning: EADG

0:21

G|----|
D|----|
A|4---|
E|----|

G|----------------------------------------------------------------|
D|----------------------------------------------------------------|
A|5---------------------------5---4---------------------------4---|
E|----------------------------------------------------------------|

G|----------------------------------------------------------------|
D|----------------------------------------------------------------|
A|3---------------------------3---2---------------------------6---|
E|----------------------------------------------------------------|

G|----------------------------------------------------------------|
D|----------------------------------------------------------------|
A|7---------------------------7---6---------------------------6---|
E|----------------------------------------------------------------|

G|----------------------------------------------------------------|
D|----------------------------------------------------------------|
A|5---------------------------5---4-------------------------------|
E|----------------------------------------------------------------|

0:39

G|----------------------------------------------------------------|
D|----------------------------------------------------------------|
A|----------------------------------------------------------------|
E|5-----------5---5-----------5---7-----------7---7-----------7---|

G|----------------------------------------------------------------|
D|----------------------------------------------------------------|
A|7-----------7---6-----------6---5-----------5---4-----------4---|
E|----------------------------------------------------------------|

G|----------------------------------------------------------------|
D|----------------------------------------------------------------|
A|----------------------------------------------------------------|
E|7-----------7---7-----------7---9-----------9---9-----------9---|

G|----------------------------------------------------------------|
D|----------------------------------------------------------------|
A|9-----------9---8-----------8---7-------------------------------|
E|--------------------------------------------5-------------------|

0:55

G|----------------------------------------------------------------|
D|----------------------------------------------------------------|
A|5-----------5---5-----------5---4-----------4---4-----------4---|
E|----------------------------------------------------------------|

G|----------------------------------------------------------------|
D|----------------------------------------------------------------|
A|3-----------3---3-----------3---2---2-------4-------6-------6---|
E|----------------------------------------------------------------|

G|----------------------------------------------------------------|
D|----------------------------------------------------------------|
A|7-----------7---7-----------7---6-----------6---6-----------6---|
E|----------------------------------------------------------------|

G|----------------------------------------------------------------|
D|----------------------------------------------------------------|
A|5-----------5---5-----------5---4-----------4---4-----------4---|
E|----------------------------------------------------------------|

1:13

G|----------------------------------------------------------------|
D|----------------------------------------------------------------|
A|----------------------------------------------------------------|
E|7-----------7---7-----------7---6-----------6---6-----------6---|

G|----------------------------------------------------------------|
D|----------------------------------------------------------------|
A|----------------------------------------------------------------|
E|5-----------5---5-----------5---4-----------4---4-----------4---|

G|----------------------------------------------------------------|
D|----------------------------------------------------------------|
A|5-----------5---5-----------5---4-----------4---4-----------4---|
E|----------------------------------------------------------------|

G|----------------------------------------------------------------|
D|----------------------------------------------------------------|
A|7-----------7---------------------------------------------------|
E|----------------5-------5-------6-------6-------6-------6-------|

1:29

G|----------------------------------------------------------------|
D|----------------------------------------------------------------|
A|6-----------6---6-----------6---5-----------5---5-----------5---|
E|----------------------------------------------------------------|

G|----------------------------------------------------------------|
D|----------------------------------------------------------------|
A|4-----------4---4-----------4---3---3-------5-------7-------7-/-|
E|----------------------------------------------------------------|

G|----------------------------------------------------------------|
D|----------------------------------------------------------------|
A|8-----------8---8-----------8---7-----------7---7-----------7---|
E|----------------------------------------------------------------|

G|----------------------------------------------------------------|
D|----------------------------------------------------------------|
A|6-----------6---6-----------6---5-----------5---5-----------5---|
E|----------------------------------------------------------------|

1:45

G|----------------------------------------------------------------|
D|----------------------------------------------------------------|
A|----------------------------------------------------------------|
E|6-----------6---6-----------6---8-----------8---8-----------8---|

G|----------------------------------------------------------------|
D|----------------------------------------------------------------|
A|8-----------8---7-----------7---6-----------6---5-----------5---|
E|----------------------------------------------------------------|

G|----------------------------------------------------------------|
D|----------------------------------------------------------------|
A|----------------------------------------------------------------|
E|8-----------8---8-----------8---10----------10--10----------10--|

G|----------------------------------------------------------------|
D|----------------------------------------------------------------|
A|10----------10--9-----------9---8-------------------------------|
E|--------------------------------------------6-------------------|

2:01

G|----------------------------------------------------------------|
D|----------------------------------------------------------------|
A|6-----------6---6-----------6---5-----------5---5-----------5---|
E|----------------------------------------------------------------|

G|----------------------------------------------------------------|
D|----------------------------------------------------------------|
A|4-----------4---4-----------4---3---3-------5-------7-------7-/-|
E|----------------------------------------------------------------|

G|----------------------------------------------------------------|
D|----------------------------------------------------------------|
A|8-----------8---8-----------8---7-----------7---7-----------7---|
E|----------------------------------------------------------------|

G|----------------------------------------------------------------|
D|----------------------------------------------------------------|
A|6-----------6---6-----------6---5-----------5---5-----------5---|
E|--------------------------------------------------------------/-|

2:18

G|----------------------------------------------------------------|
D|----------------------------------------------------------------|
A|----------------------------------------------------------------|
E|8-----------8---8-----------8---7-----------7---7-----------7---|

G|----------------------------------------------------------------|
D|----------------------------------------------------------------|
A|----------------------------------------4-----------------------|
E|6-----------6---6-----------6---5-------------------------------|

G|----------------------------------------------------------------|
D|----------------------------------------------------------------|
A|6-----------6---6-----------6---5-----------5---5-----------5---|
E|----------------------------------------------------------------|

G|----------------------------------------------------------------|
D|----------------------------------------------------------------|
A|8-----------8---------------------------------------------------|
E|----------------6-------6-------7-------7-------7-------7-------|

2:34

G|----------------------------------------------------------------|
D|----------------------------------------------------------------|
A|----------------------------------------------------------------|
E|8-----------7---7-----------7---7-----------7---7-----------7---|

G|----------------------------------------------------------------|
D|----------------------------------------------------------------|
A|----------------------------------------------------------------|
E|7-----------7---7-----------7---7-------------------------------|

G|----------------------------------------------------------------|
D|----------------------------------------------------------------|
A|----------------------------------------------------------------|
E|6-----------6---6-----------6---6-----------6---6-----------6---|

G|------------------------------------------------------------------|
D|------------------------------------------------------------------|
A|------------------------------------------------------------------|
E|------6-----6-----6-----6-----6---6-------------------------------|

2:51

G|----------------------------------------------------------------|
D|----------------------------------------------------------------|
A|6-----------6---6-----------6---5-----------5---5-----------5---|
E|----------------------------------------------------------------|

G|----------------------------------------------------------------|
D|----------------------------------------------------------------|
A|4-----------4---4-----------4---3---3-------5-------7-------7-/-|
E|----------------------------------------------------------------|

G|----------------------------------------------------------------|
D|----------------------------------------------------------------|
A|8-----------8---8-----------8---7-----------7---7-----------7---|
E|----------------------------------------------------------------|

G|----------------------------------------------------------------|
D|----------------------------------------------------------------|
A|6-----------6---6-----------6---5-----------5---5-----------5---|
E|----------------------------------------------------------------|

3:07

G|----------------------------------------------------------------|
D|----------------------------------------------------------------|
A|----------------------------------------------------------------|
E|8-----------8---8-----------8---7-----------7---7-----------7---|

G|----------------------------------------------------------------|
D|----------------------------------------------------------------|
A|----------------------------------------4-----------------------|
E|6-----------6---6-----------6---5-------------------------------|

G|----------------------------------------------------------------|
D|----------------------------------------------------------------|
A|6-----------6---6-----------6---5-----------5---5-----------5---|
E|----------------------------------------------------------------|

G|------------------------------------------------|
D|------------------------------------------------|
A|8-----------------------------------------------|
E|------------------------------------------------|

G|----------------------------------------------------------------|
D|----------------------------------------------------------------|
A|----------------------------------------------------------------|
E|6---------------------------------------------------------------|

G|----------------------------------------------------------------|.
D|----------------------------------------------------------------|.
A|6-----------6---6-----------6---5-----------5---5-----------5---|.
E|----------------------------------------------------------------|.
                                                                   . x4 to fadeout.
G|----------------------------------------------------------------|.
D|----------------------------------------------------------------|.
A|4-----------4---4-----------4-----------------------------------|.
E|--------------------------------7-----7-----7---6-------6-------|.

            
            
Suggest correction
Creating personal tab
Creating personal tab
You can edit any tab online and save it as your Personal.

You can edit, replace or remove any tab part or add personal notes – all changes will be seen only by you.

Personal tabs can be accessed anytime from any device, even offline.
Learn more »
Give kudos to tab author, rate the tab!
1 2 3 4 5
comments
print report bad tab
guest
You may want to rate the tab now too:
select rating
Wanna post a correction for this tab? Suggest correction