Oops, an error
Loading. Please wait.

Ikenai Taiyou tab

version 3
version 3

Whole song

Interactive

1,772 views 1 this week
no commentswrite comment
1 2 3 4 5
3 more votes to show rating
add to favorites
×
Save as Personal and add changes to this tab that will be seen only by you. Learn more ›
×
You can save this tab as Personal to edit and correct it or add notes. All changes will be seen only by you. Learn more »
launch autoscroll
font size
0
reset
how to read this tab
guitar tuner
edit
Autoscroll
slow
fast
+/-
esc
set tempo
stop
Author
Ikenai Taiyou
Orange Range

Tabbed by blurenciel 2009

Standard E tuning

intro
     Em    C     D     Em
E|--------------------------|
B|---8-----5-----7-----8----|
G|---7-----5-----7-----7----|
D|---9-----5-----7-----9----|   X2
A|---7-----3-----5-----7----|
E|--------------------------|

nanana part
     E5            C5            D5            E5
E|-----------------------------------------------------------|
B|-----------------------------------------------------------|
G|---9-x-9-9-9-----5-x-5-5-5-----7-x-7-7-7-----9-x-9-9-9-----|
D|---9-x-9-9-9-----5-x-5-5-5-----7-x-7-7-7-----9-x-9-9-9-----|  2 x
A|---7-x-7-7-7-----3-x-3-3-3-----5-x-5-5-5-----7-x-7-7-7-----|
E|-----------------------------------------------------------|

riff
E|---------------------------------------------------------|
B|---------------------------------------------------------|
G|---7/9-9-7---7-9-----------------------------------------|
D|-----------9--------5-6-7-5---5-7/8-8-7-5-7-5-7----------|   
A|----------------------------7--------------------5-6-7---|
E|---------------------------------------------------------|

verse
     Am7      D5       Bm7      E5
E|------------------------------------------|
B|------------------------------------------|
G|---5-5-x-5--7-7-x-7--7-7-x-7--9-9-x-9-----|
D|---5-5-x-5--7-7-x-7--7-7-x-7--9-9-x-9-----|
A|---7-7-x-7--5-5-x-5--9-9-x-9--7-7-x-7-----|
E|---5-5---5-----------7-7-x-7--------------|

     Am7      D5       C    D    E5
E|-------------------------------------------|
B|-------------------------------------------|
G|---5-5-x-5--7-7-x-7--5-5--7-7--9-9-9-9-----|
D|---5-5-x-5--7-7-x-7--5-5--7-7--9-9-9-9-----|
A|---7-7-x-7--5-5-x-5--3-3--5-5--7-7-7-7-----|
E|---5-5---5---------------------------------|

pre-chorus:
     C5   D5   G5 F# E D  A        B
E|---------------------------------------------|
B|---------------------------------------------|
G|---5-5--7-7--12-11-5-3--2-2-2-2--4-4-4-4-----|
D|---5-5--7-7--12-11-5-3--2-2-2-2--4-4-4-4-----|  
A|---3-3--5-5--10-9--7-5--0-0-0-0--2-2-2-2-----|
E|---------------------------------------------|

chorus
    Em    Am7   D     G5 B5  Em     Am7  
E|--------------------------------------|
B|--8-----5-----7--------------8-----5--|
G|--7-----5-----7-------4------7-----5--|
D|--9-----5-----7-----5-4------9-----5--|
A|--7-----7-----5-----5-2------7-----3--|
E|--------5-----------3-----------------|

     C  D  E
E|---------------------|
B|---------------------|
G|---5--7--5-5-5-5-----|
D|---5--7--5-5-5-5-----|  X2
A|---3--5--7-7-7-7-----|
E|---------------------|

     C  D
E|------------|
B|------------|
G|---5--7-----|
D|---5--7-----|
A|---3--5-----|
E|------------|

play nanana part

riff #2
E|----------------------------------------------|
B|----------------------------------------------|
G|---7-9-7-9-------------7-9-7-9----------------|
D|------------5-5-7--7-5---------5-5-7--7/0-----|
A|----------------------------------------------|
E|----------------------------------------------|

verse
Am7  D5  Bm7  E5 
Am7  D5  C5  D5   E5

play pre-chorus
C5  D5  G  F#  E  D  A  B

play chorus
Em  Am7  D  G5  B5  Em  Am7  
C  D  E     <-- X2
C   D

play intro
Em  C  D Em  <-- X6

play pre-chorus
C5  D5  G  F#  E  D  A  B

then up one note
B C

chorus (+1 note)
F  A#  D#  G#  G  F  A#  
C#  D#  F     <-- X4
C#  D#  C#

nanana part
F5  C#5  D#5  F5   <-- X2

last riff
E|-----------------------------------------------------------------------|
B|-----------------------------------------------------------------------|
G|---7/9-9-7---7-9-------------------------------------------------------|
D|-----------9--------5-6-7-5---5-7/8-8-7-5-7-5-7------------------------|   
A|----------------------------7--------------------5-6-7--5-6-7--5-6-7---|
E|-----------------------------------------------------------------------|

Enjoy!!

            
            
Suggest correction
Creating personal tab
Creating personal tab
You can edit any tab online and save it as your Personal.

You can edit, replace or remove any tab part or add personal notes – all changes will be seen only by you.

Personal tabs can be accessed anytime from any device, even offline.
Learn more »
Give kudos to tab author, rate the tab!
1 2 3 4 5
comments
print report bad tab
guest
You may want to rate the tab now too:
select rating
Wanna post a correction for this tab? Suggest correction