Oops, an error
Loading. Please wait.

Blue Monday tab

version 9
by Orgy
2,250 views 1 this week
1 commentread comment
1 2 3 4 5
1 last vote to show rating
add to favorites
×
Save as Personal and add changes to this tab that will be seen only by you. Learn more ›
×
You can save this tab as Personal to edit and correct it or add notes. All changes will be seen only by you. Learn more »
launch autoscroll
font size
0
reset
how to read this tab
guitar tuner
backing track
0:00
0:00
edit
Autoscroll
slow
fast
+/-
esc
set tempo
stop
Song: Blue Monday
Artist: Orgy

Tabbed by Danyael >Daniel<


Requires 2 guitars;

Rhythem guitar is played on a 7-string with lots of fuzz
Lead guitar is played on a 6-string with a synth unit

Rhythem: Ryan Shuck - tuning A#D#G#C#F#A#D#
Lead: Amir Derekh -   Tuning   C#G#C#F#A#D#

I've not found any tabs that are precise, I agree that it can be played in other 
 my issue
is that no one ever tabbed the song for those who do have 7-string guitars.  I am one of 
people,
and plan to continue tabbing Orgy tunes for those interested.  I will have alot of 
with effects
that are used in Amir's synth leads.  But otherwise My tabs will be as close as possible 
Correct on
Rhythems. This tab particularly due to the many times I've seen it played, and studied 
song.
Hope anyone who see's this appreciates it and rates it well.  It's alot of work for me,
am new to tabbing.

Any questions or comments mail me at holesinhappyness@yahoo.com

Intro:
        Saturated with drums, and the synth drum roll

Ryan enters with

D#----------------------------------------------------|
A#----------------------------------------------------|
F#----------------------------------------------------|
C#---------------------------------------------------:| X6
G#-10-10-10--12---------------------------------------|
D#---------------10-10-10-10--12--12-12--12-12--------|
A#----------------------------------------------------|

After Ryan's first time through Amir enters with some low octave and synth effects
that mimic the bass line but here is the lick, it starts after ryans first measure.
I suppose he's using a whammy pedal with the octave set weird

Amir enters with

D#--------------------------------------------------------|
A#--------------------------------------------------------|
F#--------------------------------------------------------|
C#---15----15----12----12------14-----14----14----14------|
G#--------------------------------------------------------|
C#-15---15----12-----12------14-----14----14-----14-------|

D#--------------------------------------------------------|
A#--------------------------------------------------------|
F#--------------------------------------------------------|
C#---17----17------12----12------14----14-----14-----14---|
G#--------------------------------------------------------|
C#-17----17------12----12-----14-----14----14-----14------|

this third intro riff is done by amir live but I'm not sure how he keeps both running
unless he's looping the above riff with his synth gear.

Amir intro riff 3

D#--------------------------------------------------------|
A#--12----------12----------------------------------------|
F#-----11--12------11--9----------------------------------|
C#--------------------------------------------------------|
G#--------------------------------------------------------|
C#--------------------------------------------------------|


Chorus

Ryan:

D#----------------------------------------------------------------|
A#----------------------------------------------------------------|
F#----------------------------------------------------------------|
C#----------------------------------------------------------------|
G#-10-10-10-10--5-5-5-5--7-7-7-7--12-12-12-12--5-5-5-5--7-7-7-7---|
D#-10-10-10-10--5-5-5-5--7-7-7-7--12-12-12-12--5-5-5-5--7-7-7-7---|
A#--8--8--8--8--3-3-3-3--5-5-5-5--10-10-10-10--3-3-3-3--5-5-5-5---|
                        |--8-X--|                      |--8-X-----|

Amir:

D#-----------------------------------------------------------------------|
A#-----------------------------------------------------------------------|
F#-----------------------------------------------------------------------|
C#-5-5-5-5--0-0-0-0--2-2-2-2-2-2-2-2--7-7-7-7--0-0-0-0--2-2-2-2-2-2-2-2--|
G#-5-5-5-5--0-0-0-0--2-2-2-2-2-2-2-2--7-7-7-7--0-0-0-0--2-2-2-2-2-2-2-2--|
C#-5-5-5-5--0-0-0-0--2-2-2-2-2-2-2-2--7-7-7-7--0-0-0-0--2-2-2-2-2-2-2-2--|

Both Ryan and Amir's intro riffs repeat for the choruses, except that
Amir's start the verses and Ryan comes in slightly later.

First bridge riffs

Ryan:

D#---------------------------------------------------------------------------|
A#---------------------------------------------------------------------------|
F#---------------------------------------------------------------------------|
C#---------------------------------------------------------------------------|
G#--------------------------------------10-10-10-10-10-10-10-10--10--12b-----|
D#-12-12-12-12-12-12-12-12--12--10--12-----------------------------------12--|
A#---------------------------------------------------------------------------|

Amir:

D#--------------------------------------------------------19~~~~~~~~~~~~-----|
A#---20---19---17---19---20---------------20---19---17-----------------------|
F#----------------------------16--16-----------------------------------------|
C#---------------------------------------------------------------------------|
G#---------------------------------------------------------------------------|
C#---------------------------------------------------------------------------|

Second Bridge Riff

Ryan:

D#------------------------------------------------------|
A#------------------------------------------------------|
F#------------------------------------------------------|
C#-----------------------9-9-9------------9-------------|
G#-----------------------------10-----------10----------|
D#--12---10--------10-12------------10-12------12b------|
A#------------12----------------------------------------|

Outro chorus same as any others except on second play through
Ryan continues the chorus rhythem and Amir plays his riff from the
first bridge..

That about sums it up.. I'll probably get numerous complaints, but if you ever
watch them live... Like Family Values Tour '98 for instance, you will know this
is 100% correct.  I took a tab from an old guitar world that showed the whole
tune in Drop-D half step down, added Ryans 7-string... then fixed the mistakes that
were there in guitar world.  Feedback greatly Appreciated....

e-mail me @ holesinhappyness@yahoo.com

            
            
Suggest correction
Creating personal tab
Creating personal tab
You can edit any tab online and save it as your Personal.

You can edit, replace or remove any tab part or add personal notes – all changes will be seen only by you.

Personal tabs can be accessed anytime from any device, even offline.
Learn more »
Give kudos to tab author, rate the tab!
1 2 3 4 5
comments
print report bad tab
1 comment total.
+1 reply
koyak 10 May 01, 2009 11:53 AM

Hey awesome and ACCURATE tab!, I appreciate it. Most of the Orgy tabs here are wrong, and done for 6 strings. One thing I noticed, Amir uses A# F C# G# D# A# tuning, as he states on his website (http://www.amirderakh.com/tech-tunings.php), and you can see his middle finger when he plays power chords, so he's not playing drop tuning. Besides that, perfect tab!

It's great to see someone else digging into Orgy's sound (I have a GSynth!). Hope to see more tabs from you, maybe I can help you with those.

guest
You may want to rate the tab now too:
select rating
Wanna post a correction for this tab? Suggest correction