Oops, an error
Loading. Please wait.

Eva bass

version 2
version 2

Whole song

by Orgy
249 views 1 this week
no commentswrite comment
1 2 3 4 5
3 more votes to show rating
add to favorites
×
Save as Personal and add changes to this tab that will be seen only by you. Learn more ›
×
You can save this tab as Personal to edit and correct it or add notes. All changes will be seen only by you. Learn more »
launch autoscroll
font size
0
reset
guitar tuner
edit
Autoscroll
slow
fast
+/-
esc
set tempo
stop
Author
This is my first tab ever. So if there is anything wrong with it please let me know. Enjoy.

Artist: Orgy
Song Name: Eva
Album: Vapor Transmission
Email: russell.shows@yahoo.com


Intro:

G/--------------------------------------------------------------------|
D/--------------------------------------------------------------------|
A/--------------------------------------------------------------------|
E/-4-4-4-4-2-2-2-------------------4-4-4-4-2-2-2----------------------|
B/---------------4-2-2-2-0-0-0-0-0---------------4-2-2-2-0-0-0-0-0----|


G/---------------------------------------------------------------------|
D/---------------------------------------------------------------------|
A/---------------------------------------------------------------------|
E/-4-4-4-4-7-7-7-7-9-9-9-9-12-12-11-11-4-4-4-4-2-2-2-------------------|
B/---------------------------------------------------4-2-2-2-0-0-0-0-0-|
                   Those are twelves and elevens.

1st Verse:

Play this 8 times.
G/-------------------------------------|
D/-------------------------------------|
A/-------------------------------------|
E/-4-4-4-4-2-2-2-----------------------|
B/---------------4-2-2-2-0-0-0-0-0-----|


Chorus:

G/------------------------------------------------------------------|
D/------------------------------------------------------------------|
A/------------------------------------------------------------------|
E/--------------6666555555550000555544444444----6666-5-5--00005555--|
B/-\999999994444----------------------------4444--------------------|


G/------------------------------------------------------------------|
D/------------------------------------------------------------------|
A/------------------------------------------------------------------|
E/-44444444----6666555555550000555544444444----6666-5-5------5555---|
B/---------4444----------------------------4444----------4444-------|


Play this twice immediately after the 1st verse.
G/-------------------------------------|
D/-------------------------------------|
A/-------------------------------------|
E/-4-4-4-4-2-2-2-----------------------|
B/---------------4-2-2-2-0-0-0-0-0-----|


2nd Verse:

Play this 6 times.
G/-------------------------------------|
D/-------------------------------------|
A/-------------------------------------|
E/-4-4-4-4-2-2-2-----------------------|
B/---------------4-2-2-2-0-0-0-0-0-----|


Pre Chorus:

G/-------------------------------------------|
D/-------------------------------------------|
A/-------------------------------------------|
E/-4-4-4-4-7-7-7-7-9-9-9-9-12-12-11-11-------|
B/-------------------------------------------|
            Those are twelves and elevens.


G/-------------------------------------------|
D/-------------------------------------------|
A/-------------------------------------------|
E/-4-4-4-4-7-7-7-7-9-9-9-9-12-12-11-11-/2-2--|
B/-------------------------------------------|
                 Those are twelves and elevens.


Chorus:

G/------------------------------------------------------------------|
D/------------------------------------------------------------------|
A/------------------------------------------------------------------|
E/-44444444----6666555555550000555544444444----6666-5-5--00005555---|
B/---------4444----------------------------4444---------------------|


G/------------------------------------------------------------------|
D/------------------------------------------------------------------|
A/------------------------------------------------------------------|
E/-44444444----6666555555550000555544444444----6666-5-5--00005555---|
B/---------4444----------------------------4444---------------------|


3rd Verse:

G/---------------------------------------------------------------------|
D/---------------------------------------------------------------------|
A/---------------------------------------------------------------------|
E/-6-666-666-666-662-222-222-222-224-444-444-444-44--------------------|
B/-------------------------------------------------4-444-447-77-6-6-6--|


G/---------------------------------------------------------------------|
D/---------------------------------------------------------------------|
A/---------------------------------------------------------------------|
E/-6-666-666-666-662-222-222-222-223-333-333-333-332-222-22------------|
B/---------------------------------------------------------4-4-4-4-----|


Play immediately after 3rd verse.

Play this 3 times.
G/--------------------------------------|
D/--------------------------------------|
A/--------------------------------------|
E/-4-4-4-4-7-7-7-7-9-9-9-9-12-12-11-11--|
B/--------------------------------------|


Then this one.
G/-------------------------------------------|
D/-------------------------------------------|
A/-------------------------------------------|
E/-4-4-4-4-7-7-7-7-9-9-9-9-12-12-11-11-/2-2--|
B/-------------------------------------------|
               Those are twelves and elevens.


Chorus:

Play this twice.
G/------------------------------------------------------------------|
D/------------------------------------------------------------------|
A/------------------------------------------------------------------|
E/-44444444----6666555555550000555544444444----6666-5-5--00005555---|
B/---------4444----------------------------4444---------------------|


This is where it starts to change.
G/------------------------------------------------------------------|
D/------------------------------------------------------------------|
A/------------------------------------------------------------------|
E/-444444444---6-555555550000555544444444----6666-5-5--00005555-----|
B/-----------4---------------------------4444-----------------------|

G/-------------------------------------------------------------------|
D/-------------------------------------------------------------------|
A/-------------------------------------------------------------------|
E/-44444444554554-----5-5--53-3-3--44444444----666666-5-5--00005555--|
B/---------------4444----------------------4444----------------------|


Outro:

Play this 6 times.
G/-------------------------------------|
D/-------------------------------------|
A/-------------------------------------|
E/-4-4-4-4-2-2-2-----------------------|
B/---------------4-2-2-2-0-0-0-0-0-----|


Tablature Explaination:
 ~ = Hold note
 h = Hammer on, quick progression
 p = Pause, do not let note ring
 / = Slide up fretboard
 \ = Slide down fretboard
 ( ) = These are use to show notes to slide up or down to
 [ ] = only play the note(s) encased by these the first time you play the line
 (**) = Play The Harmonic Of The Notes Between These, In other words don't press the 
just lightly touch the strings above the correct frets

            
            
Suggest correction
Creating personal tab
Creating personal tab
You can edit any tab online and save it as your Personal.

You can edit, replace or remove any tab part or add personal notes – all changes will be seen only by you.

Personal tabs can be accessed anytime from any device, even offline.
Learn more »
Give kudos to tab author, rate the tab!
1 2 3 4 5
comments
print report bad tab
guest
You may want to rate the tab now too:
select rating
Wanna post a correction for this tab? Suggest correction