Oops, an error
Loading. Please wait.

Gender bass

version 1
version 1

Whole song

Interactive

by Orgy
230 views 3 this week
no commentswrite comment
1 2 3 4 5
2 more votes to show rating
add to favorites
×
Save as Personal and add changes to this tab that will be seen only by you. Learn more ›
×
You can save this tab as Personal to edit and correct it or add notes. All changes will be seen only by you. Learn more »
launch autoscroll
font size
0
reset
guitar tuner
edit
Autoscroll
slow
fast
+/-
esc
set tempo
stop
Bass Tablature

Band: Orgy
Song: Gender
Track: 08
Album: Candyass
Guitar Tab by: Jason Roth
Bass Tab By: Tyler Nance (killpeople@netzero.net)
This song was tabbed on 10/18/2000.
Four String Version

Tunning: Drop tuning one step (D Gb C F)

Use heavy Distortion and/or Overdrive, or simular synth on all parts of this song

Use a pick

Intro
F|----------------------------------------------------------------------------------------------------------------
C|----------------------------------------------------------------------------------------------------------------
Gb|----------------------------------------------------------------------------------------------------------------
D|-5--5--5-5---5--5--5--6--5--5--5-5---5--5--5--6--4--4--4-4---4--4--4--6--5--5--5-5---5--5--5--6-


Chorus
(Play Quietly)
F |---------------------------------------
C |---------------------------------------
Gb|---------------------------------------
D |--6-6-6-6------------------------------

Outro
F |-------------------------------------------------------
C |-------------------------------------------------------
Gb|--------------3--3--3-3--3---------------6--6--6-6--3--
D |-2--2--2-2-------------------2--2--2-2-----------------


Intro - Play Intro/Verse Line
Verse - Play Intro/First Verse Line
Chorus - Play Chorus Line
Verse - Play All Other Verses Line
Chorus - Play Chorus Line
Verse - Play All Other Verses Verse Line
Pre Outro - Pause
Outro - Play Outro Line

End on a D

Tablature Explaination:
 ~ = Hold note
 h = Hammer on, quick progression
 p = Pause, do not let note ring
 / = Slide up fretboard
 \ = Slide down fretboard
 ( ) = These are use to show notes to slide up or down to
 [ ] = only play the note(s) encased by these the first time you play the line 
 (**) = Play The Harmonic Of The Notes Between These, In other words don't press the frets hard, just lightly touch the strings above the correct frets

If you hate trendy stuff, check out my website http://www.rd5k.com, I update my tab archive more often then The Bass Tab Archive does, and we have aternate versions of Tabs, also most of the time my tabs are correct.

Bass Tablature

Band: Orgy
Song: Gender
Track: 08
Album: Candyass
Tabbed By: Tyler Nance (killpeople@netzero.net)
This song was tabbed on 11/03/2000.

Tuning: Standard Five String (BEADG)
Note: This song can be play on a four string bass with Drop-D tuning (DADG).

Use Distortion

Intro/Verse
Repeat Several Times
G|---------------------------------------------------------------------------
D|---------------------------------------------------------------------------
A|---------------------------------------------------------------------------
E|--4--4--4-4---4--4--4--5--4--4--4-4---4--4--4--5--3--3--3-3---3--3--3--5--4--4--4-4---4--4--4--5-
B|---------------------------------------------------------------------------


Chorus
Repeat Several Times
G|-----------
D|-----------
A|-----------
E|--4-4-4-4--
B|-----------

Pre Outro
Repeat Several Times
G|----------------
D|----------------
A|----(*7-7*)-----
E|---(*7---7*)----
B|--(*7-----7-7*)-

Outro
Repeat Several Times
G|--------------------------------------
D|--------------------------------------
A|--------------------------------------
E|---------3-3-3-3--3--------6-6-6-6--3-
B|--2-2-22------------2-2-22------------

Intro - Play Intro/Verse Line
Verse -Play Intro/Verse Line
Chorus - Play Chorus Line
Verse - Play Verse Line
Chorus - Play Chorus Line
Verse - Play Verse Line
Pre Outro - Play Pre Outro Line
Outro - Play Outro Line

End on a D

Tablature Explaination:
 ~ = Hold note
 h = Hammer on, quick progression
 p = Pause, do not let not ring
 / = Slide up fretboard
 \ = Slide down fretboard
 ( ) = These are use to show notes to slide up or down to
 [ ] = only play the note(s) encased by these the first time you play the line 
 (**) = Play The Harmonic Of The Notes Between These, In other words don't press the frets hard, just lightly touch the strings above the correct frets

If you hate trendy stuff, check out my website http://www.crosswinds.net/~rd5k

Bass Tablature

Band: Orgy
Song: Gender (Live Version)
Track: 08
Album: Candyass
Tabbed By: Tyler Nance (killpeople@netzero.net)
This song was tabbed on 11/23/2000.

I saw Orgy live and this is how Paige played the song

Tuning: Standard Five String (BEADG)

Use heavy Distortion and/or Overdrive, or simular synth on all parts of this song

Use a pick

Intro/First Verse
Repeat Several Times
G|---------------------------------------------------------------------------
D|---------------------------------------------------------------------------
A|---------------------------------------------------------------------------
E|--3--3--3-3---3--3--3--4--3--3--3-3---3--3--3--4--2--2--2-2---2--2--2--4--3--3--3-3---3--3--3--4-
B|---------------------------------------------------------------------------


Chorus
Repeat Several Times
Play quitely
G|-----------
D|-----------
A|-----------
E|--4-4-4-4--
B|-----------

All Other Verses
Repeat Several Time

D|-----------------------------------------------------------------------
A|-----------------------------------------------------------------------
A|--3-3-33--3-3-3-4~-3-3-33--3-3-3-4~-2-2-22--2-2-2-4~-3-3-33--3-3-3-4~--
E|--3-3-33--3-3-3-4~-3-3-33--3-3-3-4~-2-2-22--2-2-2-4~-3-3-33--3-3-3-4~--
B|-----------------------------------------------------------------------

Pre Outro
G|-------P--------
D|-------A--------
A|-------U--------
E|-------S--------
B|-------E--------

Outro
Repeat Several Times
G|--------------------------------------
D|--------------------------------------
A|---------3-3-3-3--3--------6-6-6-6--3-
E|--2-2-22-3-3-3-3--3-2-2-22-6-6-6-6--3-
B|--2-2-22------------2-2-22------------

Intro - Play Intro/Verse Line
Verse - Play Intro/First Verse Line
Chorus - Play Chorus Line
Verse - Play All Other Verses Line
Chorus - Play Chorus Line
Verse - Play All Other Verses Verse Line
Pre Outro - Pause
Outro - Play Outro Line

End on a D

Tablature Explaination:
 ~ = Hold note
 h = Hammer on, quick progression
 p = Pause, do not let note ring
 / = Slide up fretboard
 \ = Slide down fretboard
 ( ) = These are use to show notes to slide up or down to
 [ ] = only play the note(s) encased by these the first time you play the line 
 (**) = Play The Harmonic Of The Notes Between These, In other words don't press the frets hard, just lightly touch the strings above the correct frets

If you hate trendy stuff, check out my website http://www.rd5k.com, I update my tab archive more often then The Bass Tab Archive does, we also have alternate versions of tabs, also most of the time my tabs are correct.

            
            
Suggest correction
Creating personal tab
Creating personal tab
You can edit any tab online and save it as your Personal.

You can edit, replace or remove any tab part or add personal notes – all changes will be seen only by you.

Personal tabs can be accessed anytime from any device, even offline.
Learn more »
Give kudos to tab author, rate the tab!
1 2 3 4 5
comments
print report bad tab
guest
Wanna post a correction for this tab? Suggest correction