Oops, an error
Loading. Please wait.

Mabool tab

version 1
version 1

Whole song

Interactive

1,717 views 1 this week
1 commentread comment
1 2 3 4 5
1 last vote to show rating
add to favorites
×
Save as Personal and add changes to this tab that will be seen only by you. Learn more ›
×
You can save this tab as Personal to edit and correct it or add notes. All changes will be seen only by you. Learn more »
launch autoscroll
font size
0
reset
how to read this tab
guitar tuner
edit
Autoscroll
slow
fast
+/-
esc
set tempo
stop
Author
Difficulty
A great song by this great band :)

for any questions/suggestions etc - slayersyd@gmail.com
if anyone wants the guitar pro just email me (it only has the guitar so i wont upload it..)

the song starts without guitars, they fade in later with this riff:

**Timing: 12/8, 180 BPM**
Tuning: standard EADGBE


Intro Riff:
     E  E  E  E  E  E    E  E  E  E  E  E     E  E  E  E  E  E    E  E  E  E  E  E
||----------------------------------------|----------------------------------------||
||----------------------------------------|----------------------------------------||
||----------------------------------------|----------------------------------------||
||--------------------5s7--7--7--7--------|--------------------5s7--7--7--7--------||
||--0--0--0--0--0--0----------------8--7--|--0--0--0--0--0--0----------------8--7--||
||----------------------------------------|----------------------------------------||


This repeats some time, and ends with:

   E  E  E  E  E  E  E  E  E  E  E  E
|--------------------------------------|
|--------------------------------------|
|--------------------------------------|
|--7--7--7--7--------7--7--7--7--------|
|--------------8--7--------------8--7--|
|--------------------------------------|

Riff 1: (repeats 4 times)

     H        E  E  H        E  E     H        E  E  E  E  E  E  E  E
||---------------------------------|-----------------------------------|
||---------------------------------|-----------------------------------|
||*--------------------------------|-----------------------------------|
||*-----------------7--------------|-----------------7-----------------|
||---5--------7--8-----------8--7--|--5--------7--8-----8--7--5--8--7--|
||---------------------------------|-----------------------------------|


  H        E  E  H.              H        E  E  Q.     Q.
------------------------------|--------------------------------||
------------------------------|--------------------------------||
------------------------------|-------------------------------*||
------------------------------|-------------------------------*||
-----------5--7---------------|-----------5--7--7------3-------||
--8--------------5------------|--8-----------------------------||

Riff 2: (repeats twice)

     H.           E  E  E  E  E  E     E  E  E  E  E  E  E  E  E  E  E  E
||----------------------------------|--------------------------------------|
||----------------------------------|--------------------------------------|
||*---------------------------------|--------------------------------------|
||*--2------------------------------|--------------------------------------|
||---0------------3-----5-----7-----|--8--8--8--8--7--5--3--3--3--3--5--7--|
||----------------------------------|--------------------------------------|


  H.           E  E  E  E  E  E     E  E  E  E  E  E  E  E  E  E  E  E
---------------------------------|---------------------------------------||
---------------------------------|---------------------------------------||
---------------------------------|--------------------------------------*||
--2------------------5-----------|--------------------7--5--------------*||
--0------------3-----------7-----|--8--8--8--8--7--5--------8--7--5------||
---------------------------------|-----------------------------------8---||


Slide Riff (Guitar 1):
*The first time this riff is played it uses only one guitar: (repeats 4 times)

     E   E  E  E   E  E  E   E  E  E   E  E     E   E  E  E   E  E  E   E  E  E   E  E
||-------------------------------------------|-------------------------------------------||
||-------------------------------------------|-------------------------------------------||
||*---------9---------7---------9---------7--|---------5---------7---------5---------7--*||
||*--5s--7-----7s--5-----5s--7-----7s--5-----|--5s--3-----3s--5-----5s--3-----3s--5-----*||
||-------------------------------------------|-------------------------------------------||
||-------------------------------------------|-------------------------------------------||

Ends with:

    E   E  E  E   E  E  E  E  E  E  E  E
||----------------------------------------||
||----------------------------------------||
||---------5---------7--------------------||
||--5s--3-----3s--5-----5--3--2-----------||
||-------------------------------5--3--2--||
||----------------------------------------||

Main Riff: (no repeat)

    Q.     E  E  E  Q.     E  E  E     E  E  E  Q.      E  E  E  E  E  E
||----------------------------------|-------------------------------------|
||----------------------------------|-------------------------------------|
||----------------------------------|-------------------------------------|
||---------5--3--2------------------|--2--3--5--2~------5--3--2-----------|
||--0---------------5------2--3--5--|----------------------------5--3--2--|
||----------------------------------|-------------------------------------|


  Q.     E  E  E  Q.     E  E  E     E  E  E  Q.      E  E  E  E  E  E
----------------------------------|-------------------------------------|
----------------------------------|-------------------------------------|
----------------------------------|-------------------------------------|
---------5--3--2------------------|--2--3--5----------5--3--2-----------|
--0---------------5------2--3--5--|-----------2~---------------5--3--2--|
----------------------------------|-------------------------------------|


  Q.     E  E  E  Q.     E  E  E     E  E  E  Q.      E  E  E  E  E  E
----------------------------------|-------------------------------------||
----------------------------------|-------------------------------------||
----------------------------------|-------------------------------------||
---------5--3--2------------------|--2--3--5----------5--3--2-----------||
--0---------------5------2--3--5--|-----------2~---------------5--3--2--||
----------------------------------|-------------------------------------||

Riff 2 Veriation: (no repeat)

                                      PM PM PM PM PM       PM PM PM PM PM
    H.           E  E  E  E  E  E     E  S  S  E  E  E  E  E  S  S  E  E  E  E
||---------------------------------|--------------------------------------------|
||---------------------------------|--------------------------------------------|
||---------------------------------|--------------------------------------------|
||--2------------------------------|--------------------------------------------|
||--0------------3-----5-----7-----|--8--8--8--8--8--7--5--3--3--3--3--3--5--7--|
||---------------------------------|--------------------------------------------|


   H.           E  E  E  E  E  E     E  E  E  E  E  E  S S E  E  E  Q
|---------------------------------|---------------------------------------|
|---------------------------------|---------------------------------------|
|---------------------------------|---------------------------------------|
|--2------------------5-----------|--------------------7-5-7--------------|
|--0------------3-----------7-----|--8--8--8--8--7--5---------8--5--7b----|
|---------------------------------|---------------------------------------|


   H.           E  E  E  E  E     E  E  E  E  E  E  E  E  E  E  E  E
|------------------------------|--------------------------------------|
|------------------------------|--------------------------------------|
|------------------------------|--------------------------------------|
|--2---------------------------|--7--7--7--7--5-----------------------|
|--0------------3-----5-----7--|-----------------8--7--7--7--7--5--3--|
|------------------------------|--------------------------------------|

                                                       PM PM PM PM PM PM  PM PM PM
   H.           E  E  E  E  E  E     E  E  E  E  E  E  E  E  E  E  E  E   E  E  E
|---------------------------------|------------------------------------------------||
|---------------------------------|------------------------------------------------||
|---------------------------------|------------------------------------------------||
|--2------------------5-----------|-----------------------------5--7--9--10--9--7--||
|--0------------3-----------7-----|--8--8--8--8--7--5--5--7--8---------------------||
|---------------------------------|------------------------------------------------||

Slide Riff: (Guitar 2)
*The second time this riff is played, it is accompanied with this second guitar: 
4 times)
*(dont forget the first guitar!!)

     E   E   E  E   E  E  E   E   E  E   E  E     E   E  E  E   E  E  E   E  E  E   E  E
||---------------------------------------------|------------------------------------------|
||---------------------------------------------|------------------------------------------|
||*--------------------------------------------|------------------------------------------|
||*---------10---------9---------10---------9--|---------7---------9---------7---------9--|
||---7s--8------8s--7-----7s--8------8s--7-----|--7s--5-----5s--7-----7s--5-----5s--7-----|
||---------------------------------------------|------------------------------------------|


  E   E   E  E   E  E  E   E   E  E   E  E     E   E  E  E   E  E  E   E  E  E   E  E
--------------------------------------------|-------------------------------------------||
--------------------------------------------|-------------------------------------------||
--------------------------------------------|------------------------------------------*||
---------10---------9---------10---------9--|---------7---------9---------7---------9--*||
--7s--8------8s--7-----7s--8------8s--7-----|--7s--5-----5s--7-----7s--5-----5s--7------||
--------------------------------------------|-------------------------------------------||

Ends with: (Guitar 2)


    E   E  E  E   E  E  E  E  E  E  E  E
||----------------------------------------|
||----------------------------------------|
||----------------------------------------|
||---------7---------9--5--3--2-----------|
||--7s--5-----5s--7--------------5--3--2--|
||----------------------------------------|


Main Riff: (Accompanied by some E powerchords (sorry, the exact timing is giving me a 
(no repeat)

    Q.     E  E  E  Q.     E  E  E     E  E  E  Q.      E  E  E  E  E  E
||----------------------------------|-------------------------------------|
||----------------------------------|-------------------------------------|
||----------------------------------|-------------------------------------|
||---------5--3--2------------------|--2--3--5--2~------5--3--2-----------|
||--0---------------5------2--3--5--|----------------------------5--3--2--|
||----------------------------------|-------------------------------------|


  Q.     E  E  E  Q.     E  E  E     E  E  E  Q.      E  E  E  E  E  E
----------------------------------|-------------------------------------|
----------------------------------|-------------------------------------|
----------------------------------|-------------------------------------|
---------5--3--2------------------|--2--3--5----------5--3--2-----------|
--0---------------5------2--3--5--|-----------2~---------------5--3--2--|
----------------------------------|-------------------------------------|

                  *Notice the difference here V (from the first main riff)*

  Q.     E  E  E  Q.     E  E  E     E  E  E  Q.      E  E  E  E  E  E
----------------------------------|-------------------------------------|
----------------------------------|-------------------------------------|
----------------------------------|-------------------------------------|
---------5--3--2------------------|--2--3--5--2~------5--3--2-----------|
--0---------------5------2--3--5--|----------------------------5--3--2--|
----------------------------------|-------------------------------------|


  Q.     E  E  E  Q.     E  E  E  E  E  E
-------------------------------------------||
-------------------------------------------||
-------------------------------------------||
---------5--3--2------------------2--3--5--||
--0---------------5------2--3--5-----------||
-------------------------------------------||

Riff 3: (repeat twice)

     E  E  E  E  E  E  E  E  E  E  E  E     E  E  E  E  E  E  E  E  E  E  E  E
||---------------------------------------|--------------------------------------|
||---------------------------------------|--------------------------------------|
||*--------------------------------------|--------------------------------------|
||*--7--7--7--7--5--3--5--5--5--5--3--2--|--3--3--3--3--3--3-----------2--3--5--|
||---------------------------------------|--------------------2--3--5-----------|
||---------------------------------------|--------------------------------------|


                                                   W
  E  E  E  E  E  E  E  E  E  E  S  S  E     Q.     Q.     E  E  E  E  E  E
-----------------------------------------|-----------------------------------||
-----------------------------------------|-----------------------------------||
-----------------------------------------|-------AH5~~----------------------*||
--7--7--7--7--5--3--5--5--5--5--2h-3p-2--|-------------------------2--3--5--*||
-----------------------------------------|--5-------------2--3--5------------||
-----------------------------------------|-----------------------------------||

*The next part is easy to learn but hard to put in a tab, so bare with me..
Riff 4:
(repeat twice)

     E  E  E  E  E   E  E  E  E  E   E   E      E   E   E   E   E   E   E   E   E   E   E  E
||------------------------------------------|---------------------------------------------------||
||------------------------------------------|---------------------------------------------------||
||*-----------------------------------------|--------------------------------------------------*||
||*--7--7--7--7--8--10--8--8--8--8--10--12--|--10--10--10--10--12--14--12--12--12--12--14--15--*||
||------------------------------------------|---------------------------------------------------||
||------------------------------------------|---------------------------------------------------||

Followed by: (the middle part repeats twice)


     Q.      E   Q    Q.     E   E  E     E  E  E   E   E   E   E   E   E   E   E   E
||-------------------------------------|-----------------------------------------------|
||-------------------------------------|-----------10--10--10--10--10--10--10----------|
||-------------------------------------|---------------------------------------12--10--|
||--12------12--14----8------8--10--8--|--7--7--7--------------------------------------|
||-------------------------------------|-----------------------------------------------|
||-------------------------------------|-----------------------------------------------|


   Q.      E   Q     Q.      E  E   E       Q.      E   E   E   E   E   E   E   E   E
---------------------------------------||----------------------------------------------|
---------------------------------------||----------10--10--10--10--10--10--10----------|
--10------10--12----------------9--10--||*--9----------------------------------12--10--|
--------------------12------12---------||*---------------------------------------------|
---------------------------------------||----------------------------------------------|
---------------------------------------||----------------------------------------------|


   Q.      E   Q     Q.      E  E   E       Q.      E   E   E   E   E   E   E   E   E
----------------------------------------||---------------------------------------------|
----------------------------------------||---------10--10--10--10--10--10--10----------|
--10------10--12----------------9--10--*||--9----------------------------------12--10--|
--------------------12------12---------*||---------------------------------------------|
----------------------------------------||---------------------------------------------|
----------------------------------------||---------------------------------------------|

Repeat the whole riff twice.

Timing changed to 4/4 with 120 BPM

From now until the last very last riff the notation looks extreamly wierd, so just play 
notes and listen to the song for the timing... its not hard!

Riff 5: (repeat twice)

    3    3         3          3    3    3         3          3
    Q    Q    Q    T S S Q    T    Q    Q    Q    T S S Q    T
||------------------------------|------------------------------|
||------------------------------|------------------------------|
||------------------------------|------------------------------|
||------------------------------|------------------------------|
||--5----5----5----------5------|--5----5----5----------5------|
||-------------------5-6--------|-------------------5-6--------|


  3    3         3          3
  Q    Q    Q    T S S Q    T    S S S S S S S S S S S S S S S S
------------------------------|----------------------------------|
------------------------------|----------------------------------|
------------------------------|----------------------------------|
------------------------------|------5-----------5-------7-8-7-5-|
--7----7----7----------8------|--5-6---6-5-3-5-6---6-5-3---------|
-------------------5-6--------|----------------------------------|


  3    3         3                3    3         3          3
  Q    Q    Q    S S S S S S S    Q    Q    Q    T S S Q    T
-------------------------------|------------------------------|
-------------------------------|------------------------------|
-------------------------------|------------------------------|
--7----------------------------|------------------------------|
-------5----5----------5-------|--5----5----5----------5------|
-------------------5-6---6-5-3-|-------------------5-6--------|


  3    3         3          3
  Q    Q    Q    T S S Q    T    S S S S S S S S S S S S S S S S
------------------------------|----------------------------------||
------------------------------|----------------------------------||
------------------------------|----------------------------------||
------------------------------|------5-----------5-------7-8-7-5-||
--7----7----7----------8------|--5-6---6-5-3-5-6---6-5-3---------||
-------------------5-6--------|----------------------------------||


Riff 6:
part 1:

    3    3         3          3    3      3         3           3
    Q    Q    Q    T S S Q    T    Q      Q    Q    T S S E  E  T
||------------------------------|---------------------------------|
||------------------------------|---------------------------------|
||------------------------------|---------------------------------|
||------------7------5-7-8------|---------------------------------|
||--5----5----------------------|--5----5s1----3------8-8-8--7----|
||------------------------------|---------------------------------|


  3    3         3          3    3      3         3           3
  Q    Q    Q    T S S Q    T    Q      Q    Q    T S S E  E  T
------------------------------|---------------------------------|
------------------------------|---------------------------------|
------------------------------|---------------------------------|
------------7------5-7-8------|---------------------------------|
--5----5----------------------|--5----5s1----3------8-8-8--7----|
------------------------------|---------------------------------|


    3    3         3          3    3      3         3           3
    Q    Q    Q    T S S Q    T    Q      Q    Q    T S S E  E  T
--------------------------------|---------------------------------|
--------------------------------|---------------------------------|
--------------------------------|---------------------------------|
--------------7------5-7-8------|---------------------------------|
--/10----5----------------------|--5----5s1----3------8-8-8--7----|
--------------------------------|---------------------------------|

   3                                 3
   Q     S S S S E   S S S  S S S  S T
---------------------------------------||
---------------------------------------||
---------------------------------------||
--------------------10-8-7-10-8-7------||
--10----10-8-7-8------------------10---||
---------------------------------------||

part 2:

    3    3         3          3    3      3         3           3
    Q    Q    Q    T S S Q    T    Q      Q    Q    T S S E  E  T
||------------------------------|---------------------------------|
||------------------------------|---------------------------------|
||------------------------------|---------------------------------|
||------------7------5-7-8------|---------------------------------|
||--5----5----------------------|--5----5s1----3------8-8-8--7----|
||------------------------------|---------------------------------|


  3    3         3          3    3      3         3           3
  Q    Q    Q    T S S Q    T    Q      Q    Q    T S S E  E  T
------------------------------|---------------------------------|
------------------------------|---------------------------------|
------------------------------|---------------------------------|
------------7------5-7-8------|---------------------------------|
--5----5----------------------|--5----5s1----3------8-8-8--7----|
------------------------------|---------------------------------|


    3    3         3          3    3      3         3           3
    Q    Q    Q    T S S Q    T    Q      Q    Q    T S S E  E  T
--------------------------------|---------------------------------|
--------------------------------|---------------------------------|
--------------------------------|---------------------------------|
--------------7------5-7-8------|---------------------------------|
--/10----5----------------------|--5----5s1----3------8-8-8--7----|
--------------------------------|---------------------------------|

   3                                3
   Q     S S S S E   S S S  S S S S T
--------------------------------------||
--------------------------------------||
--------------------------------------||
--------------------------------------||
--10----10-8-7-8----10-8-7-10-8-7-----||
----------------------------------8---||

part 3:

    3      3    3           3 3        3                                  3
    Q      Q    T Q      E  T Q        Q     S S  S  S E   S S S  S S S S T
||---------------------------------|----------------------------------------||
||---------------------------------|----------------------------------------||
||---------------------------------|----------------------------------------||
||---------------------------------|----------------------------------------||
||----------------5----5s8----7----|--10----10-8-10-12----10-8-7-10-8-7-----||
||--3----3s5-----------------------|------------------------------------8---||

(2/4):
    |---3--| |--3-|
    Q    S S Q    E
||-------------------|
||-------------------|
||-------------------|
||-------------------|
||--7----8-7---------|
||-----------8-------|


The storm still rages bridge:

                                               |--3--|
    Q    E  E  Q    E  E     E  Q    E  E  E  S  S  S E
||------------------------|------------------------------|
||------------------------|------------------------------|
||------------------------|------------------------------|
||-------7-----8----8-----|------------------------------|
||--5-------5----------3--|--L-------------3--1h-3p-1----|
||------------------------|-----5----3--5-------------3--|


  Q    E  E  Q    E  E     E  Q    E  E   S  S Q
------------------------|----------------------------||
------------------------|----------------------------||
------------------------|---------------------------*||
------------------7-----|---------------------------*||
-------------5----------|----------7--7h--8p-7-5-----||
--5----8--6----------6--|--L--6----------------------||


Tablature Legend
----------------
- - tied note
x - dead note
AH - artificial harmonic
h - hammer on
p - pull off
b - bend
s - legato slide
/ -  slide into from below or out of upwards
\ -  slide into from above or out of downwards
~ - vibrato
W - wide vibrato

Duration Legend
---------------
W - whole
H - half
Q - quarter
E - 8th
S - 16th
T - 32nd
X - 64th
. - note dotted
|-n-|  - n-tuplets

            
            
Suggest correction
Creating personal tab
Creating personal tab
You can edit any tab online and save it as your Personal.

You can edit, replace or remove any tab part or add personal notes – all changes will be seen only by you.

Personal tabs can be accessed anytime from any device, even offline.
Learn more »
Give kudos to tab author, rate the tab!
1 2 3 4 5
comments
print report bad tab
1 comment total.
0 reply
Goad 4,836 Aug 10, 2008 06:14 PM

This is an awesome tab!

guest
You may want to rate the tab now too:
select rating
Wanna post a correction for this tab? Suggest correction