Oops, an error
Loading. Please wait.

Mike Isnt Down With Punctuation tab

by Oso Oso
82 views 9 this week
no commentswrite comment
1 2 3 4 5
3 more votes to show rating
add to favorites
×
Save as Personal and add changes to this tab that will be seen only by you. Learn more ›
×
You can save this tab as Personal to edit and correct it or add notes. All changes will be seen only by you. Learn more »
launch autoscroll
font size
0
reset
how to read this tab
guitar tuner
edit
Autoscroll
slow
fast
+/-
esc
set tempo
stop
D#|---------------------------------------------------------------------------|
A#|---------------------------------------------------------------------------|
F#|--6-6-------------6-6-------------6-6-------------6-6-6--------------------|
C#|--7-7-------------7-7-------------7-7-------------7-7-7--------------------|
G#|--7-7-------------6-6-------------5-5-------------5-5-5--------------------| 2x
D#|---------------------------------------------------------------------------|

   "well i could just..."
D#|---------------------------------------------------------------------------|
A#|---------------------------------------------------------------------------|
F#|--6-6-------------6-6-------------6-6-------------6-6-6--------------------|
C#|--7-7-------------7-7-------------7-7-------------7-7-7--------------------|
G#|--7-7-------------6-6-------------5-5-------------5-5-5--------------------| 2x
D#|---------------------------------------------------------------------------|

    "it's never tame..."
D#|-----------------------------------------------------------------------------------|
A#|--------3-3-3-------------------3-3-3----------------------------------------------|
F#|--------2-2-2-2-2-2-4-4-4-------2-2-2-2-2-2-------4-4-4-4-4-4-4-4-7-7-7-7-7-7-7-7--|
C#|--4-4-4-------2-2-2-4-4-4-4-4-4-------2-2-2-1-1-1-4-4-4-4-4-4-4-4-7-7-7-7-7-7-7-7--|
G#|--4-4-4-------------2-2-2-4-4-4-------------2-2-2-2-2-2-2-2-2-2-2-5-5-5-5-5-5-5-5--| 1x
D#|--2-2-2-------------------2-2-2-------------2-2-2----------------------------------|

D#|-----------------------------------|     D#|-----------------------------------|
A#|-----------------------------------|     A#|-----------------------------------|
F#|--4-4-4-4-4-4-4-4-7-7-7-7-7-7-7-7--|     F#|-----------------------------------|
C#|--4-4-4-4-4-4-4-4-7-7-7-7-7-7-7-7--|     C#|--5-5-5-5-5-5-5-5-5-5-5-5-5-5-5-5--|
G#|--2-2-2-2-2-2-2-2-5-5-5-5-5-5-5-5--| 2x  G#|--5-5-5-5-5-5-5-5-5-5-5-5-5-5-5-5--| 1x
D#|-----------------------------------|     D#|--3-3-3-3-3-3-3-3-3-3-3-3-3-3-3-3--|

D#|---------------------------------------------------------------------------|
A#|---------------------------------------------------------------------------|
F#|--6-6-------------6-6-------------6-6-------------6-6-6--------------------|
C#|--7-7-------------7-7-------------7-7-------------7-7-7--------------------|
G#|--7-7-------------6-6-------------5-5-------------5-5-5--------------------| 1x
D#|---------------------------------------------------------------------------|

    "i wish i could lie..."
D#|---------------------------------------------------------------------------|
A#|---------------------------------------------------------------------------|
F#|--6-6-------------6-6-------------6-6-------------6-6-6--------------------|
C#|--7-7-------------7-7-------------7-7-------------7-7-7--------------------|
G#|--7-7-------------6-6-------------5-5-------------5-5-5--------------------| 2x
D#|---------------------------------------------------------------------------|

    "it's never tame..."
D#|-----------------------------------------------------------------------------------|
A#|--------3-3-3-------------------3-3-3----------------------------------------------|
F#|--------2-2-2-2-2-2-4-4-4-------2-2-2-2-2-2-------4-4-4-4-4-4-4-4-7-7-7-7-7-7-7-7--|
C#|--4-4-4-------2-2-2-4-4-4-4-4-4-------2-2-2-1-1-1-4-4-4-4-4-4-4-4-7-7-7-7-7-7-7-7--|
G#|--4-4-4-------------2-2-2-4-4-4-------------2-2-2-2-2-2-2-2-2-2-2-5-5-5-5-5-5-5-5--| 1x
D#|--2-2-2-------------------2-2-2-------------2-2-2----------------------------------|

D#|-----------------------------------|     D#|-----------------------------------|
A#|-----------------------------------|     A#|-----------------------------------|
F#|--4-4-4-4-4-4-4-4-7-7-7-7-7-7-7-7--|     F#|-----------------------------------|
C#|--4-4-4-4-4-4-4-4-7-7-7-7-7-7-7-7--|     C#|--5-5-5-5-5-5-5-5-5-5-5-5-5-5-5-5--|
G#|--2-2-2-2-2-2-2-2-5-5-5-5-5-5-5-5--| 2x  G#|--5-5-5-5-5-5-5-5-5-5-5-5-5-5-5-5--| 1x
D#|-----------------------------------|     D#|--3-3-3-3-3-3-3-3-3-3-3-3-3-3-3-3--|

     "and i don't know..."
D#|-----------------------------------------------------------------------------|
A#|-----------------------------2--2--2-----------------------------2--2--------|
F#|--4--4--4--7--7--7--2--2--2--2--2--2--4--4--4--7--7--7--2--2--2--2--2--1--1--|
C#|--4--4--4--7--7--7--2--2--2--4--4--4--4--4--4--7--7--7--2--2--2--4--4--2--2--|
G#|--2--2--2--5--5--5-----------4--4--4--2--2--2--5--5--5-----------4--4--2--2--| 1x
D#|-----------------------------------------------------------------------------|

D#|---------------------------------------------------------------------------|
A#|---------------------------------------------------------------------------|
F#|--4--4--4--7--7--7--------------------4--4--4--7--7--7---------------------|
C#|--4--4--4--7--7--7--7--7--7--4--4--4--4--4--4--7--7--7--7--7--7--4--4--4---|
G#|--2--2--2--5--5--5--7--7--7--4--4--4--2--2--2--5--5--5--7--7--7--4--4--4---| 1x
D#|--------------------5--5--5--2--2--2--------------------5--5--5--2--2--2---|

D#|---------------------------------------------------------------------------|
A#|---------------------------------------------------------------------------|
F#|--4--4--4--7--7--7--------------------4--4--4--7--7--7---------------------|
C#|--4--4--4--7--7--7--7--7--7--4--4--4--4--4--4--7--7--7--7--7--7--5---------|
G#|--2--2--2--5--5--5--7--7--7--4--4--4--2--2--2--5--5--5--7--7--7--5---------| 1x
D#|--------------------5--5--5--2--2--2--------------------5--5--5--3---------|

lyrics:

well i could just rot, i could rot while you talk here or i could just slip through the cracks in the sidewalk
here

it's never tame it's a game yea it's all a shame use your name it's a shame you can't tell anyone, you can't 
tell anyone, you can't tell anyone, oooooooh

i wish i could lie, i could lie while you lay there until we both die on account of the days pass

it's never tame it's a game yea it's all a shame use your name it's a shame you can't tell anyone, you can't 
tell anyone, you can't tell anyone, oooooooh

and i don't know what to do when all my dreams are haunted by you and i don't know where to run when we find
ourselves where we find someone

we'll get the hang of this we'll get the hang of this yea we're just hangin with it i'm getting of the same
old bored shit, and i once found love in a dark room all laid out next to you i once found the truth i once
found one suit

            
            
Suggest correction
Creating personal tab
Creating personal tab
You can edit any tab online and save it as your Personal.

You can edit, replace or remove any tab part or add personal notes – all changes will be seen only by you.

Personal tabs can be accessed anytime from any device, even offline.
Learn more »
Give kudos to tab author, rate the tab!
1 2 3 4 5
comments
print report bad tab
guest
You may want to rate the tab now too:
select rating
Wanna post a correction for this tab? Suggest correction