Oops, an error
Loading. Please wait.

Ghostflowers bass

version 1
version 1

Whole song

Interactive

by Otep
17,517 views 6 this week
7 commentsread comments
1 2 3 4 5
x 7
add to favorites
×
Save as Personal and add changes to this tab that will be seen only by you. Learn more ›
×
You can save this tab as Personal to edit and correct it or add notes. All changes will be seen only by you. Learn more »
launch autoscroll
font size
0
reset
guitar tuner
edit
Autoscroll
slow
fast
+/-
esc
set tempo
stop
Author
Difficulty
tuning:BEADG
album:The Ascension

Here you go one of their best songs.....plz rate

|---------------|
|---------------|
|---------------|
|--7-7---7-7----|
|------------0~-|

|------------------------------------------------------------------------------------|
|------------------------------------------------------------11-11-------------------|
|-----------------------------------------------------------9--9--9------------------|
|-------------------2-2-----------------------------2-2---11-------11-10-------------|
|-2--3--2--3--323-4--4-3--2--523-2--523-2-5-3-323-4--4-3-------------------4-4-x44-0-|

|------------------------------------------------------------------------|
|------------------------------------------------------------------------|
|-7-5-7-8-10-8-7-8-7-8-7-5-3-2-3-2-7-5-7-8-10-8-7-8-7-8-10-12-14-15-14-8-|
|--0-0-0-0--0-0-0-0-0-0-0-0-0-0-0-0-0-0-0-0--0-0-0-0-0-0--0--0--0--0--0--|
|------------------------------------------------------------------------|
 2x
|-----------------------------------------------------------------------------|
|-----------------------------------------------------------------------------|
|-7-5-7-8-10-8-7-8-7-8-7-5-3-2-3-2-7-5-7-8-10-8-7-8-7788101012121414151514148-|
|--0-0-0-0--0-0-0-0-0-0-0-0-0-0-0-0-0-0-0-0--0-0-0-0--------------------------|
|-----------------------------------------------------------------------------|

|--------------------------------------------------|
|--------------------------------------------------|
|--------------------------------------------------|
|-000-000000-000---00---000-000000-000---00--------|
|----------------33--33----------------33--3322211-|

|----------------------------------|
|----------------------------------|
|-777--------------777-------------|
|----------4445577----------55544--|
|----555666-----------555666-----6-|
 2x

|-------------------------------------------------------------|
|-------------------------------------------------------------|
|-------------------------------------------------------------|
|-------------------------------------------------------------|
|-35-5-3-6-6-xx-x-35-5-3-8-8-xx-1-35-5-3-6-6-xx-x-35-5-3-8-xx-|

|-----------------------9--10--|-----3-------3----|
|------------------------------|---2---2---2---2--|
|----------------------7-77--8-|------------------|
|-00-00-00-00-00-00-00---------|-00-0-0-000-0-0-0-|
|------------------------------|------------------|
                                2x

|----------------------------------|
|----------------------------------|
|----------------------------------|
|----------------------------------|
|-35-5-3-6-35-5-36-35-5-36-35-53-8-|
 2x

|-------------------------------------|
|-------------------------------------|
|-------------------------------------|
|-------------------------------------|
|-35-55366-35-55366-35-55366-35-55388-|
 2x

|-----------------------------------|
|-----------------------------------|
|-----------------------------------|
|-----------------------------------|
|-11-1-11111-1-133-00-0-00044444444-|

|-------------9--10--|-----3-------3----|----3---3---3---3-|
|--------------------|---2---2---2---2--|--2---2---2---2---|
|------------7-77--8-|------------------|------------------|
|-00-00-00-00--------|-00-0-0-000-0-0-0-|-0-0-0-0-0-0-0-0--|
|--------------------|------------------|------------------|
                      6x              THEN

|---------------------------------------------------------------|
|---------------------------------------------------------------|
|------------------------------------------------20202020202020-|
|--------------------------------------------1819---------------|
|-55-55-55-55-6666666666666666-18181818181818-------------------|

|------------------------------|-----------------------------------|
|------------------------------|-----------------------------------|
|-777----------777-------------|-777--------------777--------------|
|----------------------555444--|----------4445577----------55544---|
|----5556--12/----5556-------6-|----555666-----------555666-----66-|
  2x                              2x

|-----------------------------------|---------------------------------|
|-----------------------------------|---------------------------------|
|-777--------------777--------------|---13-----12-----11----10---9----|
|----------4445577----------55544---|-12--12-11--11-10--10-9--9-8-8-7-|
|----555666-----------555666-----66-|---------------------------------|

|---------------------------------------------|
|---------------------------------------------|
|---------------------------------------------|
|---------------------------------------------|
|-3/5-5-5-5/6-6-6-6/8-8-8-3/5-5-5-5/8-8-8-8\6-|

|--------------------------------------------------------------------------|
|--------------------------------------------------------------------------|
|-5-7-7-5-7-5-7-8-8-8-8-8-8-10-10-10-5-7-7-5-7-5-7-10-10-10-10-10-8-10-8-8-|
|--------------------------------------------------------------------------|
|--------------------------------------------------------------------------|

|----------------------------------------------------------------|
|----------------------------------------------------------------|
|----------------------------------------------------------------|
|----------------------------------------------------------------|
|-3-5-5-3-5-3-5-6-6-6-6-6-6-8-8-8-3-5-5-3-5-3-5-8-8-8-8-8-6-8-6-6|
 2x

|-----------------------------------------------------------------------------|
|-----------------------------------------------------------------------------|
|-7-5-7-8-10-8-7-8-7-8-7-5-3-2-3-2-7-5-7-8-10-8-7-8-7788101012121414151514148-|
|--0-0-0-0--0-0-0-0-0-0-0-0-0-0-0-0-0-0-0-0--0-0-0-0--------------------------|
|-----------------------------------------------------------------------------|

|---------------------------------------------------------------------|
|---------------------------------------------------------------------|
|-----------------------------------8887771010107787-888777101010778/-|
|---------------------------------------------------------------------|
|-6665558886665565-6665558886665565-----------------------------------|

|----------------------------|----------------------------------|
|----------------------------|----------------------------------|
|----------------------------|----------------------------------|
|----------------------------|----------------------------------|
|35-536-35-536-35-536-53-538-|-35535356355353653553535635535365-|
 2x                            2x

|----------------------------------|
|----------------------------------|
|----------------------------------|
|----------------------------------|
|-11-1-11111-1-111--55-55-55-55-55-|

There you go the very first Bass Tab to ghostflowers. This tab is 100% correct so dont 
me any crap. Enjoy!!!

            
            
Suggest correction
Creating personal tab
Creating personal tab
You can edit any tab online and save it as your Personal.

You can edit, replace or remove any tab part or add personal notes – all changes will be seen only by you.

Personal tabs can be accessed anytime from any device, even offline.
Learn more »
comments
print report bad tab
7 comments total. Showing first comments.
+1 reply
[PT]PainKill 10 Nov 24, 2007 04:50 AM

It's not BEADG, it's A#D#G#C#F#, 1/2 step down BEADG... Apart from that, this tab is perfect!!!

+1 reply
iplay4luv 41 Jan 03, 2008 03:25 PM

the intro sounds better with 66 66/1
0~

+2 reply
v.s.bassist 293 Jan 15, 2008 02:05 PM

i love you sexy :)

guest
You may want to rate the tab now too:
select rating
Wanna post a correction for this tab? Suggest correction