Oops, an error
Loading. Please wait.

Smash The Control Machine bass

by Otep
3,821 views 1 this week
5 commentsread comments
1 2 3 4 5
x 3
add to favorites
×
Save as Personal and add changes to this tab that will be seen only by you. Learn more ›
×
You can save this tab as Personal to edit and correct it or add notes. All changes will be seen only by you. Learn more »
launch autoscroll
font size
0
reset
guitar tuner
edit
Autoscroll
slow
fast
+/-
esc
set tempo
stop
i was infuriated when i had to figure this song out by myself, but i did it
anyway, so here ya go, buddy.

intro
G|------------------------------------------------------------------|
D|------------------------------------------------------------------|
A|------------------------------------------------------------------|
D|---3-0-0--3-0-0--3-0-0-1/6--3-0-0--3-0-0--3-0-0--6\1--------------|

G|------------------------------------------------------------------|
D|-------------------------------3----------------------------------|
A|---------------------------3-5---5-3-0----------------------------|
D|---3-0-0--3-0-0--3-0-0-1/6-------------6\1-0----------------------|

verse
G|------------------------------------------------------------------|
D|------------------------------------------------------------------|
A|-------------------------------5^---------------------------------|
D|--12-10-7-6-3-5-6-1-0-0-0-0-0-0--0--0-0-0-0-0--0-66666-3333-------|

G|------------------------------------------------------------------|
D|------------------------------------------------------------------|
A|----------------------------------3333----------------------------|
D|--3-0-0-0-0-0-0-0-0--0-0-0-0-0--0------66666-7--------------------|

(they only play the below part once!!)
G|------------------------------------------------------------------|
D|------------------------------------------------------------------|
A|------------------------------------------------------------------|
D|--7-0-0-0-0-0-0-0--0-0-0-0-0---6-6-6-6-6-6--333333333-------------|

G|------------------------------------------------------------------|
D|------------------------------------------------------------------|
A|------------------------------------------------------------------|
D|--0-0-0-0-0-0-0-0--0-0-0-0-0-6666--33333--------------------------|

G|--------------------------------------------------------------------|
D|--------------------------------------------------------------------|
A|-----------------------------3/5-3/5-3/5-3/5------------------------|
D|--0-0-0-0-0-0-0-0--0-0-0-0-0----------------66666-77777-------------|

chorus
G|------------------------------------------------------------------|
D|------------------------------------------------------------------|
A|------3------3----------------------------------------------------|
D|--0-0--0-6-0--0-6-3-3333-44-1-0-----------------------------------|

bridge
G|------------------------------------------------------------------|
D|------------------------------------------------------------------|
A|------------------------------------------------------------------|
D|--11-0-1-0-1-0--11-0-4-0-1-0--11-0-1-0-1-0--11-0-4-1-0------------|
bridge cont'd
G|------------------------------------------------------------------|
D|------------------------------------------------------------------|
A|--55555555-5-3-5-6-5-3-5-3----------------------------------------|
D|---------------------------66-5-333-555-6666----------------------|
bridge cont'd
G|------------------------------------------------------------------|
D|------------------------------------------------------------------|
A|------------------------------------------------------------------|
D|--00-1-0-0-1-0--0-1-0-6666--00-1-0-0-1-0-0-1-0-10-10-10-10--------|
bridge cont'd
G|-------------------------------------------------------------------|
D|-------------------------------------------------------------------|
A|-------------------------------------------------------------------|
D|--3333-4444-1111-0-0-0-0-0-3333-4444-1111-0-0-0-0-0-3333-4444-1111-|

G|------------------------------------------------------------------------|
D|------------------------------------------------------------------------|
A|--5-5-5-5-5-5-----------------------------------------------------------|
D|-------------------3333-4444-1111-(back into verse) --------------------|

G|------------------------------------------------------------------|
D|------------------------------------------------------------------|
A|---------------5^-----------------6--6--6--6----------------------|
D|--0-0-0-0-0-0-----0--0-0-0-0-0--6--6--6--6---33333----------------|

G|------------------------------------------------------------------|
D|----------------------------------5--5--5--5----------------------|
A|---------------5^---------------3--3--3--3------------------------|
D|--0-0-0-0-0-0-----0--0-0-0-0-0---------------66666-7--------------|

G|--------------------------------------------------------------------|
D|--------------------------------------------------------------------|
A|---------------5^--------------3/5-3/5-3/5-3/5----------------------|
D|--7-0-0-0-0-0-----0--0-0-0-0-0----------------66666-77777-----------|

G|------------------------------------------------------------------|
D|------------------------------------------------------------------|
A|------3------3----------------------------------------------------|
D|--0-0--0-6-0--0-6-3-3333-44-1-0-----------------------------------|

G|------------------------------------------------------------------|
D|------------------------------------------------------------------|
A|-------3333-----------3333------------3333------------------------|
D|--0000-----6666--0000------6666--0000------6666-------------------|

G|------------------------------------------------------------------|
D|------------------------------------------------------------------|
A|------------------------------------------------------------------|
D|--333-444-1-333-444-1-0-------------------------------------------|

TA DA!

            
            
Suggest correction
Creating personal tab
Creating personal tab
You can edit any tab online and save it as your Personal.

You can edit, replace or remove any tab part or add personal notes – all changes will be seen only by you.

Personal tabs can be accessed anytime from any device, even offline.
Learn more »
Give kudos to tab author, rate the tab!
1 2 3 4 5
comments
print report bad tab
5 comments total. Showing first comments.
0 reply
Tarell676 10 Feb 08, 2010 03:31 AM

Are you sure about this?
Seem to remember he uses a 5sting bass......

0 reply
metalheadloki 10 Feb 22, 2010 08:33 PM

its pretty good.. there are some minor mistakes.. but this works really well...

0 reply
bassbender15 31 Apr 07, 2010 04:33 PM

yeah, he does use a 5string, but if he uses his B in this song i cant hear it; and yeah, i ****ed up a couple of things haha

guest
You may want to rate the tab now too:
select rating
Wanna post a correction for this tab? Suggest correction