Oops, an error
Loading. Please wait.

The Weather Song bass

by Ought
262 views 1 this week
no commentswrite comment
1 2 3 4 5
2 more votes to show rating
add to favorites
×
Save as Personal and add changes to this tab that will be seen only by you. Learn more ›
×
You can save this tab as Personal to edit and correct it or add notes. All changes will be seen only by you. Learn more »
launch autoscroll
font size
0
reset
guitar tuner
edit
Autoscroll
slow
fast
+/-
esc
set tempo
stop
Author
-------------------------------------------------------------------------------
                             THE WEATHER SONG - Ought
-------------------------------------------------------------------------------
Tabbed by: CLMP
E-mail: 

Tuning: Standard

INTRO

G|-----------------------------|
D|-----------------------------|  x3
A|-44-34-3h44-3----------------|
E|--------------44-2h4-2h424---|

until the singing start then...

VERSE 1

G|------------------------------------------------------|
D|------------------------------------------------------| x4
A|-44-34-3h44-3---------------44-34-3h436---------------|
E|--------------44-2h4-2h424--------------44-2h4-2h424--|

CHORUS

G|------------------------------------------------------|
D|-------------------5-5-5-5-3-3333333------------------| x4
A|-5-5-5-5-3-3333333------------------------------------|
E|------------------------------------------------------|

and the fifth one is
G|------------------------------------------------------|
D|-------------------5-5-5-5-55-77777-------------------|
A|-5-5-5-5-3-3333333------------------------------------|
E|------------------------------------------------------|

Then play another VERSE 1 and CHORUS and for the last verse:
VERSE 2

G|-------------6-------------4/6-----|
D|----6----4---------4---------------| x8
A|------3h4--4-----------------------|
E|-44------------22---1h22-2---------|

For the last CHORUS juste do the first four 

G|------------------------------------------------------|
D|-------------------5-5-5-5-3-3333333------------------| x4
A|-5-5-5-5-3-3333333------------------------------------|
E|------------------------------------------------------|

Then switch to the OUTRO that goes like this

G|-----------------------------------|
D|-----------------5-5-5-5-3-3-3-3---| x2
A|-5-5-5-5-3-3-3-3-------------------|
E|-----------------------------------|

G|------------------------------7----10---|                 
D|------------5------5-5-5-5-7/9-9-7------| x4 
A|-5-5-5-5-5/7-7-575----------------------|
E|----------------------------------------|

slowing down on the last one and ending on a 

G|--7~-|
D|-----|
A|-----|
E|-----|

So the song goes
INTRO
VERSE 1
CHORUS
VERSE 1
CHORUS
VERSE 2
CHORUS
OUTRO

ENJOY :)


| /  slide up
| \  slide down
| h  hammer-on
| p  pull-off
| ~  vibrato
| +  harmonic
| x  Mute note
===============================================================================

            
            
Suggest correction
Creating personal tab
Creating personal tab
You can edit any tab online and save it as your Personal.

You can edit, replace or remove any tab part or add personal notes – all changes will be seen only by you.

Personal tabs can be accessed anytime from any device, even offline.
Learn more »
Give kudos to tab author, rate the tab!
1 2 3 4 5
comments
print report bad tab
guest
You may want to rate the tab now too:
select rating
Wanna post a correction for this tab? Suggest correction