Oops, an error
Loading. Please wait.

All You Did Was Save My Life bass

version 1
version 1

Whole song

Interactive

2,900 views 3 this week
no commentswrite comment
1 2 3 4 5
x 3
add to favorites
×
Save as Personal and add changes to this tab that will be seen only by you. Learn more ›
×
You can save this tab as Personal to edit and correct it or add notes. All changes will be seen only by you. Learn more »
launch autoscroll
font size
0
reset
guitar tuner
edit
Autoscroll
slow
fast
+/-
esc
set tempo
stop
Author
Song: All you did was save my life
Band: Our Lady Peace
Tabber: Bubblemonkey (Alex I)
Tuning: Standard (G D A E)
I know this probably isn't 100% right, but it's as correct as I could get it, and it 
good, regardless.


VERSE (Don't come in until after the first four lines of singing)

...save my life...   Tried to run, but I couldn't move
                  |-------------------|------------------|
                  |-------------------|------------------|
                  |-------------------|------------------|
                  |-2/7-7-7-7-7-7-7-7-|-7-7-2/7-7-7-2/7-2|

 Well I paid for these concrete shoes
|-----------------|------------------|
|-----------------|------------------|
|-----------------|-----------------6|
|-6-6-6-6-6-6-6-6-|-6-6-2/6-6-6-2/6--|

 Like a singer that sings the blues
|-----------------|------------------|
|-----------------|------------------|
|-----------------|------------------|
|-4-4-4-4-4-4-4-4-|-4-4-2/4-4-4-2/4-0|

 You saw hope in the hopeless
|-----------------|-----------------|
|-----------------|-----------------|
|-----------------|-----------------|
|-0-0-0-0-0-0-0-0-|-0-2-2-2-2-2-2-2-|

PRECHORUS
                      I'm not dying
|-------------------|---------------|
|-------------------|-------------2-|
|-------------------|---------------|
|--0-----0-----0----|--2-----2------|

CHORUS

   All you did was save my
|-----------------|-----------------|
|-----------------|-----------------|
|-2-2-2-2-2-2-2-2-|-2-2-2-2-2-2-2-2-|
|-----------------|-----------------|

 Life   Pulled me  out of that flat-
|-----------------|-----------------|
|-----------------|-----------------|
|-1-1-1-1-1-1-1-1-|-1-1-1-1-1-1-1-1-|
|-----------------|-----------------|

 line     Put the  heartbeat back in-
|-----------------|-----------------|
|-----------------|-----------------|
|-----------------|-----------------|
|-4-4-4-4-4-4-4-4-|-4-4-4-4-6-7-6-4-|

  side              I'm not dying
|-----------------|-----------------|
|-----------------|-----------------|
|-----------------|-----------------|
|-0----0-----0/---|-14--14-14-14-14-|

           All you did was get me
|-----------------|-----------------|
|-----------------|-----------------|
|-2-2-2-2-2-2-2-2-|-2-2-2-2-2-2-1-2-|
|-----------------|-----------------|

  Through, I owe   every breath to
|-----------------|---1-1-3-3-4-4-4-|
|-----------------|-----------------|
|-1-1-1-1-1-1-1-1-|-1---------------|
|-----------------|-----------------|

  you, Heart and   soul unpara-
|-----------------|-----------------|
|-----------------|-----------------|
|-----------------|-----------------|
|-4-4-4-4-4-4-4-4-|-4-4-4-4-4-4-4-4-|

  lyzed, all you   did was save my
|-----------------|-----------------|
|-----------------|-----------------|
|-----------------|-----------------|
|-0-0-0-0-0-0-0-0-|-0-2-2-2-0-2-2-2-|

AFTER CHORUS
******************
PLEASE NOTE
******************
I've included two octaves here, because I'm not sure which one is correct.
This part isn't meant to be played plucking two notes at once, there's a top
part and a bottom part. They're exactly the same but the top one is an
octave higher. I like both personally.

 Life...
|-4-4-4-4---------|--3/4-4---4/11---|
|-----------------|---------------9-|
|-2-2-2-2---------|--1/2-2----2/9---|
|-----------------|---------------7-|

|-----------------|----------4/11---|
|-8-8-8-8---------|--6/8-8--------8-|
|-----------------|-----------2/9---|
|-6-6-6-6---------|--4/6-6--------6-|

|-----------------|------------------|
|-6-6-6-6---------|--4/6-6----6/16-6-|
|-----------------|------------------|
|-4-4-4-4---------|--2/4-4----4/14-4-|

|------------4----|-----------------|
|-2-2-2-2------2--|---4-4-4-4-4-4-4-|
|------------2----|-----------------|
|-0-0-0-0------0--|---2-2-2-2-2-2-2-|

VERSE 2

 I'm not for sale     but I've been
|-----------------|-----------------|
|-----------------|-----------------|
|-2-2-2-2-2-2-2-2-|-2-2-2-2-2-2-2-2-|
|-----------------|-----------------|

 sold, the more I   hear the less I
|-----------------|-----------------|
|-----------------|-----------------|
|-1-1-1-1-1-1-1-1-|-1-1-1-1-1-1-2-1-|
|-----------------|-----------------|

 know...       the lies are swallowed
|-----------------|-----------------|
|-----------------|-----------------|
|-----------------|-----------------|
|-4-4-4-4-4-4-4-4-|-4-4-4-4-6-7-6-4-|

 whole, in their   insignificance
|-----------------|-----------------|
|-----------------|-----------------|
|-----------------|-----------------|
|-0-0-0-0-0-0-0-0-|-0-2-2-0-2-2-2-2-|

 This story's been told a million
|-----------------|-------------------|
|-----------------|---------------4---|
|-2-2-2-2-2-2-2-2-|-0/2-2-2-2-2-2---2-|
|-----------------|-------------------|

 times, but it's   different it's your
|-----------------|-------------------|
|-----------------|-------------------|
|-----------------|---------------4---|
|-6-6-6-6-6-6-6-6-|-4/6-6-6-6-6-6---6-|

 life, I won the   lottery to-
|-----------------|-------------------|
|-----------------|-------------------|
|-----------------|-------------------|
|-4-4-4-4-4-4-4-4-|-2/4-4-4-4-4-4-4-4-|


 night,       the  lottery to-
|-----------------|-------------------|
|-----------------|-------------------|
|-----------------|-------------------|
|-0-0-0-0-0-0-0-0-|-0/2-2-2-2-2-2-2-2-|

  night...           I'm not dying
|-----------------|-----------------|
|-----------------|-----------------|
|-----------------|-----------------|
|-0------0------0-|-2-----2------2--|

CHORUS 2

 All you did was save my
|-----------------|-----------------|
|-----------------|-----------------|
|-2-2-2-2-2-2-2-2-|-2-2-2-2-2-2-2-2-|
|-----------------|-----------------|

 Life   Pulled me  out of that flat-
|-----------------|-----------------|
|-----------------|-----------------|
|-1-1-1-1-1-1-1-1-|-1-1-1-1-1-1-1-1-|
|-----------------|-----------------|

 line     Put the  heartbeat back in-
|-----------------|-----------------|
|-----------------|-----------------|
|-----------------|-----------------|
|-4-4-4-4-4-4-4-4-|-4-4-4-6-6-7-7-4-|

  side              I'm not dying
|-----------------|---------------|
|-----------------|---------------|
|-----------------|--------16-----|
|-0----0-----0/---|-14--14-----14-|

           All you did was get me
|-----------------|-----------------|
|-----------------|-----------------|
|-2-2-2-2-2-2-2-2-|-2-2-2-2-2-2-1-2-|
|-----------------|-----------------|

  Through, I owe   every breath to
|-----------------|-----1-1-3-3-4-4-|
|-----------------|-----------------|
|-1-1-1-1-1-1-1-1-|-1-1-------------|
|-----------------|-----------------|

  you, Heart and   soul unpara-
|-----------------|-----------------|
|-----------------|-----------------|
|-----------------|-----------------|
|-4-4-4-4-4-4-4-4-|-4-4-4-4-4-4-4-4-|

  lyzed, all you   did was save my
|-----------------|-----------------|
|-----------------|-----------------|
|-----------------|-----------------|
|-0-0-0-0-0-0-0-0-|-0-2-2-2-0-2-2-2-|

BRIDGE

 Life...      I'm  starting to come around
|-1-1-1-1-1-1-1-1-|-1-1-1-1-1-1-1-1-|
|-----------------|-----------------|
|-----------------|-----------------|
|-----------------|-----------------|

            The    dogs are backing down
|-----------------|-----------------|
|-2-2-2-2-2-2-2-2-|-2-2-2-2-2-1-2-1-|
|-----------------|-----------------|
|-----------------|-----------------|

                    I'm not afraid to
|-----------------|-----------------|
|-----------------|-----------------|
|-2-2-2-2-2-2-2-2-|-2-2-2-2-2-1-2-1-|
|-----------------|-----------------|

  See
|-----------------|---------------------|
|-----------------|---------------------|
|-4-4-4-4-4-4-4-4-|-0/4-4-4-4-0/4-4-4-4-|
|-----------------|---------------------|

              The  devil's gone underground
|-1-1-1-1-1-1-1-1-|-1-1-1-1-1-1-1-4-|
|-----------------|-----------------|
|-----------------|-----------------|
|-----------------|-----------------|

              This tightrope's been cut
|-----------------|-----------------|
|-2-2-2-2-2-2-2-2-|-2-2-2-2-2-2-1-2-|
|-----------------|-----------------|
|-----------------|-----------------|

 down               And I can finally
|-----------------|-----------------|
|-----------------|-----------------|
|-2-2-2-2-2-2-2-2-|-2-2-2-1-2-1-2-4-|
|-----------------|-----------------|

   breathe...
|-----------------|-----------------|
|-----------------|-----------------|
|-----------------|-----------------|
|-2-2-2-2-2-2-2-2-|-2-2-2-2-2-2-2-2-|

VERSE 3

 You, looked at    me as you walked in the
|-----------------|-----------------|
|-----------------|-----------------|
|-2~~~~~~~~~~~~~~-|~~~~~~~~~~~~~~~~~|
|-----------------|-----------------|

 room, like a red sea you split me
|-----------------|-----------------|
|-----------------|-----------------|
|-1~~~~~~~~~~~~~~~|~~~~~~~~~~~~~~~~~|
|-----------------|-----------------|

 open, somehow     knew these wings were
|-----------------|-----------------|
|-----------------|-----------------|
|-----------------|-----------------|
|-4~~~~~~~~~~~~~~~|~~~~~~~~~~~~~~~~~|

 stolen...             I'm not dying
|-----------------|-----------------|
|-----------------|-----------------|
|-----------------|-----------------|
|-0-----0----14/0-|-2-----2------2--|

CHORUS 3


All you did was save my
|-----------------|-----------------|
|-----------------|-----------------|
|-2-2-2-2-2-2-2-2-|-2-2-2-2-2-2-2-2-|
|-----------------|-----------------|

 Life   Pulled me  out of that flat-
|-----------------|-----------------|
|-----------------|-----------------|
|-1-1-1-1-1-1-1-1-|-1-1-1-1-1-1-1-1-|
|-----------------|-----------------|

 line     Put the  heartbeat back in-
|-----------------|-----1-1-3-3-4-4-|
|-----------------|-----------------|
|-----------------|-----------------|
|-4-4-4-4-4-4-4-4-|-4-4-------------|

  side              I'm not dying
|-----------------|---------------|
|-----------------|---------------|
|-----------------|---------------|
|-0----0-----0----|-14--12-14--14-|

           All you did was get me
|-----------------|-----------------|
|-----------------|-----------------|
|-2-2-2-2-2-2-2-2-|-2-2-2-2-2-2-1-2-|
|-----------------|-----------------|

  Through, I owe   every breath to
|-----------------|-----1-1-3-3-4-4-|
|-----------------|-----------------|
|-1-1-1-1-1-1-1-1-|-1-1-------------|
|-----------------|-----------------|

  you, Heart and   soul unpara-
|-----------------|-----------------|
|-----------------|-----------------|
|-----------------|-----------------|
|-4-4-4-4-4-4-4-4-|-4-4-4-4-4-4-4-4-|

  lyzed, all you   did was save my
|-----------------|-----------------|
|-----------------|-----------------|
|-----------------|-----------------|
|-0-0-0-0-0-0-0-0-|-0-2-2-2-0-2-2-2-|

OUTRO

 Life      all you did was save my
|-----------------|-----------------|
|-----------------|-----------------|
|-2-2-2-2-2-2-2-2-|-2-2-2-2-1-2-1-2-|
|-----------------|-----------------|

 Life      all you did was save my
|-----------------|-----------------|
|-4-4-4-4-4-4-4-4-|-4-4-4-4-4-4-4-4-|
|-----------------|-----------------|
|-----------------|-----------------|

 Life      all you did was save my
|-----------------|-------4-4-6-8-8-|
|-----------------|-----------------|
|-----------------|-----------------|
|-4-4-4-4-4-4-4-4-|-4-4-4-----------|

 Life      all you did was save my
|-----------------|-----------------|
|-----------------|-----------------|
|-----------------|-----------------|
|-0-0-0-0-0-0-0-0-|-0-0-0-0-0-0-0-2-|

 Life      all you did was save my
|-----------------|-----------------|
|-----------------|-----------------|
|-2-2-2-2-2-2-2-2-|-2-2-2-2-2-2-2-2-|
|-----------------|-----------------|

 Life     all you  did was save my
|-----------------|-----------------|
|-4-4-4-4-4-4-4-4-|-4-4-2-2-1-1-----|
|-----------------|-------------2-2-|
|-----------------|-----------------|

 Life...
|-----------------|-----------------|
|-----------------|-----------------|
|-----------------|-----------------|
|-4-4-4-4-4-4-4-4-|-4-0-4-4-4-2-4-2-|


|-----------------|-----------------|
|-----------------|-----------------|
|-----------------|-----------------|
|-0~~~~~~~~~~~~~~~|~~~~~~~~~~~~~~~~~|

            
            
Suggest correction
Creating personal tab
Creating personal tab
You can edit any tab online and save it as your Personal.

You can edit, replace or remove any tab part or add personal notes – all changes will be seen only by you.

Personal tabs can be accessed anytime from any device, even offline.
Learn more »
Give kudos to tab author, rate the tab!
1 2 3 4 5
comments
print report bad tab
guest
You may want to rate the tab now too:
select rating
Wanna post a correction for this tab? Suggest correction