Oops, an error
Loading. Please wait.

All You Did Was Save My Life tab

version 1
version 1

Whole song

Interactive

6,879 views 1 this week
1 commentread comment
1 2 3 4 5
x 4
add to favorites
×
Save as Personal and add changes to this tab that will be seen only by you. Learn more ›
×
You can save this tab as Personal to edit and correct it or add notes. All changes will be seen only by you. Learn more »
launch autoscroll
font size
0
reset
how to read this tab
guitar tuner
edit
Autoscroll
slow
fast
+/-
esc
set tempo
stop
Author
Difficulty
----------------------------------------------------------------------------
                                                   All You Did Was Save My Life - Our Lady Peace
----------------------------------------------------------------------------
Tabbed by: Squigz
Email: joshbeatty2@live.com

Tuning: Standard

Intro:
Guitar 1:

|--4------------------------------------------------------------|
|--0--X 16------------------------------------------------------|
|--2------------------------------------------------------------|
|---------------------------------------------------------------|
|---------------------------------------------------------------|
|---------------------------------------------------------------|

Verse:
Guitar 1:

|--2--------- 2--------- 2--------- 2----------------------------------|
|--0--X 16----0--X 16----0--X 16----0--X 10----------------------------|
|--4--------- 3--------- 1--------- 3----------------------------------|
|----------------------------------------------------------------------|    X2
|----------------------------------------------------------------------|
|----------------------------------------------------------------------|

Guitar 2: Come In After Guitar 1 Plays the Intro Riff Once

|----------------------------------------------------------------|
|----------------------------------------------------------------|
|-4-4-4-4-4-4-4-4-4-4-4-4-4-4-4-4--------------------------------|
|-4-4-4-4-4-4-4-4-4-4-4-4-4-4-4-4-6-6-6-6-6-6-6-6-2-2-2-2-4-4-4-4|
|-2-2-2-2-2-2-2-2-1-1-1-1-1-1-1-1-6-6-6-6-6-6-6-6-2-2-2-2-4-4-4-4|
|---------------------------------4-4-4-4-4-4-4-4-0-0-0-0-2-2-2-2|

Pre-Chorus:
Guitar 1:

|--2-2-2-2-2-2--------------------------------------------------|
|--0-0-0-0-0-0--------------------------------------------------|
|--3-3-3-3-3-3--------------------------------------------------|
|---------------------------------------------------------------|
|---------------------------------------------------------------|
|---------------------------------------------------------------|

Guitar 2:

|---------------------------------------------------------------|
|---------------------------------------------------------------|
|---------------------------------------------------------------|
|-2-2-2-4-4-4---------------------------------------------------|
|-2-2-2-4-4-4---------------------------------------------------|
|-0-0-0-2-2-2---------------------------------------------------|

Chorus:
Guitar 1:

|--2--------- 2--------- 2------ 2------2-------2-2-2-2-2-2-----------|
|--0--X 16----0--X 16----0--X 16-0--X8--0--X8---0-0-0-0-0-0-----------|
|--4--------- 3--------- 1------ 1------3-------3-3-3-4-4-4-----------|  X2
|--4--------- 4--------- 1------ 2------4-------4-4-4-4-4-4-----------|
|------------------------------------------------ --------------------|
|------------------------------------------------ --------------------|

Guitar 2:

|----------------------------------------------------------------|
|----------------------------------------------------------------|
|-4-4-4-4-4-4-4-4-4-4-4-4-4-4-4-4--------------------------------|
|-4-4-4-4-4-4-4-4-4-4-4-4-4-4-4-4-6-6-6-6-6-6-6-6-2-2-2-2-4-4-4-4|  X2
|-2-2-2-2-2-2-2-2-1-1-1-1-1-1-1-1-6-6-6-6-6-6-6-6-2-2-2-2-4-4-4-4|
|---------------------------------4-4-4-4-4-4-4-4-0-0-0-0-2-2-2-2|

Pre Verse:
Guitar 1:

|---------------------------------------------------------------|
|---------------------------------------------------------------|
|---------------------------------------------------------------|
|--9-9-8-9-9-8-9-9-8--9-9-8-9-9-8-9-9-11--9-9-8-9-9-8-9-9-8-----|
|---------------------------------------------------------------|
|---------------------------------------------------------------|

Guitar 2:

|---------------------------------------------------------------|
|---------------------------------------------------------------|
|---------------------------------------------------------------|
|--9-9-9-9-9-9-9-9-9--9-9-9-9-9-9-9-9-11-9-9-9-9-9-9-9-9-9------|
|--9-9-9-9-9-9-9-9-9--9-9-9-9-9-9-9-9-11-9-9-9-9-9-9-9-9-9------|
|--7-7-6-7-7-6-7-7-6--7-7-6-7-7-6-7-7-9--7-7-6-7-7-6-7-7-6------|

Guitar 1:

|------------------------------------------------------------------|
|------------------------------------------------------------------|
|------------------------------------------------------------------|
|-9-9-8-9-9-8--9/8--8/6--6/4--4/2----------------------------- ----|
|------------------------------------------------------------------|
|------------------------------------------------------------------|

Guitar 2:

|------------------------------------------------------------------|
|------------------------------------------------------------------|
|------------------------------------------------------------------|
|-9-9-9-9-9-9--9/8--8/6--6/4--4-------------------------------- ---|
|-9-9-9-9-9-9--9/8--8/6--6/4--4-------------------------------- ---|
|-7-7-6-7-7-6--7/6--6/4--4/2--2-------------------------------- ---|

Verse:
Guitar 1:

|--2--------- 2--------- 2--------- 2----------------------------------|
|--0--X 16----0--X 16----0--X 16----0--X 16----------------------------|
|--4--------- 3--------- 1--------- 3----------------------------------|
|----------------------------------------------------------------------|    X2
|----------------------------------------------------------------------|
|----------------------------------------------------------------------|

Guitar 2: Come In After Guitar 1 Plays the Intro Riff Once

|----------------------------------------------------------------|
|----------------------------------------------------------------|
|-4-4-4-4-4-4-4-4-4-4-4-4-4-4-4-4--------------------------------|
|-4-4-4-4-4-4-4-4-4-4-4-4-4-4-4-4-6-6-6-6-6-6-6-6-2-2-2-2-4-4-4-4| X2
|-2-2-2-2-2-2-2-2-1-1-1-1-1-1-1-1-6-6-6-6-6-6-6-6-2-2-2-2-4-4-4-4|
|---------------------------------4-4-4-4-4-4-4-4-0-0-0-0-2-2-2-2|

Pre-Chorus:
Guitar 1:

|--2-2-2-2-2-2--------------------------------------------------|
|--0-0-0-0-0-0--------------------------------------------------|
|--3-3-3-3-3-3--------------------------------------------------|
|---------------------------------------------------------------|
|---------------------------------------------------------------|
|---------------------------------------------------------------|

Guitar 2:

|---------------------------------------------------------------|
|---------------------------------------------------------------|
|---------------------------------------------------------------|
|-2-2-2-4-4-4---------------------------------------------------|
|-2-2-2-4-4-4---------------------------------------------------|
|-0-0-0-2-2-2---------------------------------------------------|

Chorus:
Guitar 1:

|--2--------- 2--------- 2------ 2------2-------2-2-2-2-2-2-----------|
|--0--X 16----0--X 16----0--X 16-0--X8--0--X8---0-0-0-0-0-0-----------|
|--4--------- 3--------- 1------ 1------3-------3-3-3-4-4-4-----------|  X2
|--4--------- 4--------- 1------ 2------4-------4-4-4-4-4-4-----------|
|------------------------------------------------ --------------------|
|------------------------------------------------ --------------------|

Guitar 2:

|----------------------------------------------------------------|
|----------------------------------------------------------------|
|-4-4-4-4-4-4-4-4-4-4-4-4-4-4-4-4--------------------------------|
|-4-4-4-4-4-4-4-4-4-4-4-4-4-4-4-4-6-6-6-6-6-6-6-6-2-2-2-2-4-4-4-4|  X2
|-2-2-2-2-2-2-2-2-1-1-1-1-1-1-1-1-6-6-6-6-6-6-6-6-2-2-2-2-4-4-4-4|
|---------------------------------4-4-4-4-4-4-4-4-0-0-0-0-2-2-2-2|

Bridge:
Guitar 1:

|---------------------------------------------------------------|
|---------------------------------------------------------------|
|-8-8-9--X14--14b16--X5-12--8-8-9--X14--14b16--X3--15b17-17b19--|
|---------------------------------------------------------------|
|---------------------------------------------------------------|
|---------------------------------------------------------------|

Sorry i Can't figure out the other guitar but i'm guessing it's something like Ab5,  E5, 
to C#5  but thats all i could get from a bass tab

Pre Chorus:
Guitar 1:

|-2--------2---------2----------2-------2-----------------------|
|------X8--------X8--------x8---0---X8--0---X8------------------|
|---4---------3---------1-------1-------3-----------------------|
|-------------------------------2-------4-----------------------|
|---------------------------------------------------------------|
|---------------------------------------------------------------|

Guitar 2:

|---------------------------------------------------------------|
|---------------------------------------------------------------|
|---------------------------------------------------------------|
|-------------------------------2-----4-------------------------|
|-------------------------------2-X8--4-X8----------------------|
|-------------------------------0-----2-------------------------|

Chorus:
Guitar 1:

|--2--------- 2--------- 2------ 2------2-------2-2-2-2-2-2---------|
|--0--X 16----0--X 16----0--X 16-0--X8--0--X8---0-0-0-0-0-0---------|
|--4--------- 3--------- 1------ 1------3-------3-3-3-4-4-4---------|  X4ish
|--4--------- 4--------- 1------ 2------4-------4-4-4-4-4-4---------|
|------------------------------------------------ ------------------|
|------------------------------------------------ ------------------|

Guitar 2:

|----------------------------------------------------------------|
|----------------------------------------------------------------|
|-4-4-4-4-4-4-4-4-4-4-4-4-4-4-4-4--------------------------------|
|-4-4-4-4-4-4-4-4-4-4-4-4-4-4-4-4-6-6-6-6-6-6-6-6-2-2-2-2-4-4-4-4|  X4ish
|-2-2-2-2-2-2-2-2-1-1-1-1-1-1-1-1-6-6-6-6-6-6-6-6-2-2-2-2-4-4-4-4|
|---------------------------------4-4-4-4-4-4-4-4-0-0-0-0-2-2-2-2|


| /  slide up
| \  slide down
| h  hammer-on
| p  pull-off
| ~  vibrato
| +  harmonic
| x  Mute note


End

            
            
Suggest correction
Creating personal tab
Creating personal tab
You can edit any tab online and save it as your Personal.

You can edit, replace or remove any tab part or add personal notes – all changes will be seen only by you.

Personal tabs can be accessed anytime from any device, even offline.
Learn more »
comments
print report bad tab
1 comment total.
0 reply
MusicMan24 1,144 Sep 07, 2011 10:48 AM

The intro should be:

e|2------|
B|0--x16-|
G|4------|
D|-------|
A|-------|
E|-------|

guest
You may want to rate the tab now too:
select rating
Wanna post a correction for this tab? Suggest correction