Oops, an error
Loading. Please wait.

Innocent bass

version 2
version 2

Whole song

Interactive

855 views 1 this week
no commentswrite comment
1 2 3 4 5
2 more votes to show rating
add to favorites
×
Save as Personal and add changes to this tab that will be seen only by you. Learn more ›
×
You can save this tab as Personal to edit and correct it or add notes. All changes will be seen only by you. Learn more »
launch autoscroll
font size
0
reset
guitar tuner
edit
Autoscroll
slow
fast
+/-
esc
set tempo
stop
Inocent
Our Lady Peace

Tuning is a little weird:

G-D-A-C#

This is my first tab, but I'm 100% certain it's correct. This is more a revision on the 
one, as the tuning is wrong in it. This song only utilizes the bottom string (in this 
a Db string), so it's pretty simple.

INTRO - No Bass
VERSE 1 - No Bass
PRE CHORUS 1 - No Bass
Bass starts at the chorus at 0:37

CHORUS x2
Gb-----------------------------------------------------------------|
Db-----------------------------------------------------------------|
Ab-----------------------------------------------------------------|
C#-00000-0-0-77777-7-7-55555-5-5-99999-77-77-----------------------|

VERSE 2 - play the chorus

PRE CHORUS 2
G----------------------------------------------------------------|
D----------------------------------------------------------------|
A----------------------------------------------------------------|
C#--55555-5-5-77777-7-7-55555-5-5-99999-7-77---------------------|

CHORUS x2

BRIDGE
G----------------------------------------------------------------|
D----------------------------------------------------------------|    x3
A----------------------------------------------------------------|
C#-00000-0-0--00000-0-0--55555-5-5-99999-7-7-7-------------------|

PRE CHORUS 3
G-------------------------------------------------|
D-------------------------------------------------|
A-------------------------------------------------|
C#--55555-5-5-77777-7-7-55555-5-5-99999-7-77---0--|(let ring until next chorus)

OUTRO- Like the chorus with a nicer segway at the end of it. Repeat till the end.
CHORUS x2
Gb-----------------------------------------------------------------|
Db-----------------------------------------------------------------|
Ab-----------------------------------------------------------------|
C#-00000-0-0-77777-7-7-55555-5-5-99999-77777-----------------------|

Yup, that's it. It's a great song, and real easy on bass.

Tabbed by: chrisleupold

            
            
Suggest correction
Creating personal tab
Creating personal tab
You can edit any tab online and save it as your Personal.

You can edit, replace or remove any tab part or add personal notes – all changes will be seen only by you.

Personal tabs can be accessed anytime from any device, even offline.
Learn more »
Give kudos to tab author, rate the tab!
1 2 3 4 5
comments
print report bad tab
guest
You may want to rate the tab now too:
select rating
Wanna post a correction for this tab? Suggest correction