Oops, an error
Loading. Please wait.

One Man Army bass

version 3
version 3

Whole song

Interactive

1,069 views 1 this week
no commentswrite comment
1 2 3 4 5
2 more votes to show rating
add to favorites
×
Save as Personal and add changes to this tab that will be seen only by you. Learn more ›
×
You can save this tab as Personal to edit and correct it or add notes. All changes will be seen only by you. Learn more »
launch autoscroll
font size
0
reset
guitar tuner
edit
Autoscroll
slow
fast
+/-
esc
set tempo
stop
One Man Army by Our Lady Peace
Bass played by Duncan Coutts
Taken from the album Happiness... Is Not A Fish That You Can Catch
Tabbed by Laurent (laurent.morin@hotmail.com)

All right, a good tab has already been made by L.A., but it doesn't include all of the 
little moves that makes it so fun to play. I know OLP usually uses half-step down tuning, 
but it is unuseful for this one, but feel free to play it as you like it.
So with this one, you should pull it off exactly like the stuido version, every note is there.

A : 10   -   /  Slide up
B : 11   -   \  Slide down
C : 12   -   ~  Let ring
D : 13   -  ( ) Faint note

Verse (0:13)
G|--------------------------------------------------------------CB-CB--|
D|-1/66666-66-66-666-44444-44-44-3/4-99999-9998888844-BBBBB-BB----B--B-|
A|---------------------------------------------------------------------|
E|---------------------------------------------------------------------|

G|---------------------------------------------------------------------|
D|-66666-66-66-666-44444-44-44--3/4-99999-9998888844-BBBBB-BB-BB-9B-9B-|
A|-------------------------------------------------------------(B)-----|
E|---------------------------------------------------------------------|

Pre-Chorus (0:37)
G|-------------------------|
D|-------------------------|
A|-B\0-------B\0--BBBBBBBB-|
E|--------22---------------|

Chorus (0:43)
G|--------------------------------------------------------|
D|-----------------------------B\-------------------------|
A|--------------------------------------------------------|
E|-0-0-0-0-777777-2-2-2-2-99999---0000-777777-222-679---9-|

G|------------------------------------------------------------|
D|------------------------------B\----------------------------|
A|----------------B9-99999---------7-777779-------B\0---------|
E|-0-02244667799BB---------99999-----------7-777-----------2/-|

Verse 2 (1:07)
G|-------------------------------------------------------------------|
D|-----------------------------------------------------------------B-|
A|------------------------------------------------------------A9-9A--|
E|-44444-44-44-444-22222-22-22--1/2-77777-7776666622-99999-99---9----|

G|--------------------------------------------------------------------|
D|-------------------------------------------------------------B-B-BD-|
A|------------------------------------------------------------B-B-B---|
E|-44444-44-44-444-22222-22-22--1/2-77777-7776666622-99999-99---------|

Pre-Chorus (1:31)

Chorus 2 (1:36)
G|-----------------------------------------------------------|
D|-----------------------------B\---------------------89B--B-|
A|--------------------------------77777777--------999--------|
E|-0-0-0-0-777777-2-2-2-2-99999-----------77777777-----------|

G|--9-988------------------------------------------|
D|-------99889988668---------------B\--------------|
A|------------------9-99999------------------------|
E|--------------------------9-9999---0-0000-7-7777-|

Solo (2:04)
G|---------------------------------------------------------------------|
D|---------------------------------------------------------------------|
A|------------------2222242---------------------------------468-68-68\-|
E|-B\44444-4-222212--------1-1110101--4-444-62-222212-777777-----------|

G|-------------------------------------------------------------------|
D|--------------------------9BBBBB----------9BBBBBBBBBBBB/CCCCCCCCB\-|
A|-------------------------------------------------------------------|
E|-4-444-62-22212--79-79-79--------79-79-79--------------------------|

Chorus 3 (2:28)
G|-----------------------------------------------------------|
D|-----------------------------B\----------------------89B-B-|
A|-7-7-7-7---------999999---------7-7-7-7---------99999------|
E|---------7-7-7-7--------99999-----------7-7-7-7------------|

G|-9-988----------------------------988-------------------------|
D|------99889988668--------------B\----99889988668--------89B-B-|
A|-----------------9-99999------------------------9-99999-------|
E|------------------------9-9999--------------------------------|

G|-----------------------------------------------------------------|
D|------------------------------(B)-----------------------------­B\-|
A|----------------B9-99999------------------------B9-99999---------|
E|-0-02244667799BB---------99999---0-02244667799BB---------99999---|

G|---------------------------------------------------|
D|---------------------------------------------------|
A|----------------B9-99999-----------------------46--|
E|-0-02244667799BB---------99999---0-022446677777--2-|

Have fun playing.
Peace

            
            
Suggest correction
Creating personal tab
Creating personal tab
You can edit any tab online and save it as your Personal.

You can edit, replace or remove any tab part or add personal notes – all changes will be seen only by you.

Personal tabs can be accessed anytime from any device, even offline.
Learn more »
Give kudos to tab author, rate the tab!
1 2 3 4 5
comments
print report bad tab
guest
You may want to rate the tab now too:
select rating
Wanna post a correction for this tab? Suggest correction