Oops, an error
Loading. Please wait.

Starseed bass

version 2
version 2

Whole song

Interactive

2,587 views 12 this week
no commentswrite comment
1 2 3 4 5
1 last vote to show rating
add to favorites
×
Save as Personal and add changes to this tab that will be seen only by you. Learn more ›
×
You can save this tab as Personal to edit and correct it or add notes. All changes will be seen only by you. Learn more »
launch autoscroll
font size
0
reset
guitar tuner
edit
Autoscroll
slow
fast
+/-
esc
set tempo
stop
Our Lady Peace - 'Starseed'
From 'Naveed' Album
5 String Bass, standard tuning (BEADG)
tabbed by jjhand

Thought I'd fix the tab for Starseed, and 'h' is hammer-on. Please rate 
or comment on the tab. Thanks!


Intro - Guitar Only


Before Verse 1, enter with Drums

 Bass Intro (before Raine sings)
G|-----------------|-----------------|-----------------|----------------|
D|-----------------|-----------------|-----------------|----------------|
A|-2h4---4---4-2h4-|-2h4---4---4-----|-2h4---4---4-2---|-4---4-7---7-6--|
E|-----------------|-------------2h4-|-----------------|----------------|
B|-----2---2-------|-----2---2-------|-----2---2-------|----------------|


Main Riff   

  Part 1, played 4x
G|-----------------|-----------------|
D|-----------------|-----------------|
A|-2h4---4---4-2h4-|-2h4---4---4-----|
E|-----------------|-------------2h4-|
B|-----2---2-------|-----2---2-------|


  Part 2
G|-----------------|-----------------|
D|-----------------|-----------------|
A|-----------------|-----------------|
E|-2-2-2-2-2-2-2-2-|-----------------|
B|-----------------|-5-5-5-5-4-4-4-4-|


Play Part 1 twice again to finish main riff





Verse 1 - Play Main Riff Again (all 14 bars)



Verse Ending
G|-----------------|-----------------|-----------------|
D|-----------------|-----------------|-----------------|
A|-----------------|-----------------|-----------------|
E|-2-2-2-2-2-2-2-2-|-----------------|-----------------|
B|-----------------|-5-5-5-5-5-5-5-5-|-5-5-5-5-5-5-5-5-|

 "Yea -ee, yea -ee, yea -ee, yea -eeeeeeeeeeee"




Chorus - Play Main Riff again 



Verse 2 - Same as first verse



Chorus 2 - Play Main Riff again 




(2:53) before Drum Fill & Guitar Solo
G|-----------------|-----------------|-----------------|
D|-----------------|-----------------|-----------------|
A|-----------------|-----------------|-----------------|
E|-----------------|-----------------|-----------------|
B|-2-2-2-2-2-2-2-2-|-2-2-2-2-0-0-0-0-|-0h2-2-2-2-2-2-2-|



Guitar Solo - 


G|-----------------|-----------------|
D|-----------------|-----------------|
A|-----------------|-----------------| play 4x
E|-----------------|-----------------|
B|-0h2-2-2-2-2-2-2-|-2-2-2-2-0-0-0-0-| 


G|-----------------|-----------------|-----------------|
D|-----------------|-----------------|-----------------|
A|-----------------|-----------------|-2h4---4---4-2h4-|
E|-2-2-2-2-2-2-2-2-|-----------------|-----------------|
B|-----------------|-5-5-5-5-4-4-4-4-|-----2---2-------|

G|-----------------|-----------------|-----------------|
D|-----------------|-----------------|-----------------|
A|-2h4---4---4-----|-2h4---4---4-2h4-|-----------------|
E|-------------2h4-|-----------------|-2-2-2-----------|
B|-----2---2-------|-----2---2-------|-------5-5-5-4-4-|



Final Chorus - Play Main Riff until end

            
            
Suggest correction
Creating personal tab
Creating personal tab
You can edit any tab online and save it as your Personal.

You can edit, replace or remove any tab part or add personal notes – all changes will be seen only by you.

Personal tabs can be accessed anytime from any device, even offline.
Learn more »
Give kudos to tab author, rate the tab!
1 2 3 4 5
comments
print report bad tab
guest
You may want to rate the tab now too:
select rating
Wanna post a correction for this tab? Suggest correction