Oops, an error
Loading. Please wait.
We have an official Hey Ya tab made by UG professional guitarists. Check out the tab »
×
by OutKast
62,097 views 96 this week
4 commentsread comments
1 2 3 4 5
x 23
add to favorites
×
Save as Personal and add changes to this tab that will be seen only by you. Learn more ›
×
You can save this tab as Personal to edit and correct it or add notes. All changes will be seen only by you. Learn more »
launch autoscroll
font size
0
reset
guitar tuner
edit
Autoscroll
slow
fast
+/-
esc
set tempo
stop
-----------------------------------------------------------------------------
                             Hey Ya - Outkast
-----------------------------------------------------------------------------

Artist: Outkast
Song: Hey Ya
Albulm: The Love Below
Tabbed By : Zeroisgreatman 
e-mail: Benzero@verison.net
Tuning: EADG

[Main Riff]
G|--------------------------------------------------------------|
D|--------------------------------------------------------------|
A|------------3-3-3-3-3-3--3-3-3-3-3--5-5-----------------------|
E|-3-3-3-3-3-------------------------------0-0-0-0-0--0-0-0-0-0-|

[Chorus]
(w/Flanger)
"Hey Ya,...Hey ya...Don't want to meet your daddy..."
G|--------------------------------------------------------------|
D|--------------------------------------------------------------|
A|------------3-3-3-3-3-3--3-3-3-3-3--5-5-----------------------|
E|-3-3-3-3-3-------------------------------0-0-0-0-0--0-0-0-0-0-|

[Bridge]
(w/Flanger)
(Right when he says..)
"Give me some sugar, I am your neighboor..."
G|--------------------------------------------------------------|
D|-----------------------------------------2-2-2-2-2--2-2-2-2-2-|
A|------------3-3-3-3-3-3--3-3-3-3-3--5-5-----------------------|
E|-3-3-3-3-3----------------------------------------------------| 

            
            
Suggest correction
Creating personal tab
Creating personal tab
You can edit any tab online and save it as your Personal.

You can edit, replace or remove any tab part or add personal notes – all changes will be seen only by you.

Personal tabs can be accessed anytime from any device, even offline.
Learn more »
comments
print report bad tab
4 comments total. Showing first comments.
+2 reply
nasty_santa409 100 Dec 10, 2003 07:00 PM

a lot better than your chords for the same song!!!

+2 reply
Geldof the Grey 360 Jan 17, 2004 07:00 PM

I personaly would say that the E on the bass was on the second fret, D string, as it sounds like it's ascending, but I don't play bass often, so I won't pretend to be an expert.

G--------------------------------------------------------------
D-----------------------------------------2-2-2-2-2--2-2-2-2-2-
A------------3-3-3-3-3-3--3-3-3-3-3--5-5-----------------------
E-3-3-3-3-3----------------------------------------------------

Like that. Comments?

-2 reply
saturns_bassman 789 Jan 20, 2005 07:00 PM

yea pretty damn close bud nice tab!!

guest
You may want to rate the tab now too:
select rating
Wanna post a correction for this tab? Suggest correction