Oops, an error
Loading. Please wait.

Song In The Breeze tab

version 1
version 1

Whole song

Interactive

by Outlaws
1,067 views 1 this week
no commentswrite comment
1 2 3 4 5
1 last vote to show rating
add to favorites
×
Save as Personal and add changes to this tab that will be seen only by you. Learn more ›
×
You can save this tab as Personal to edit and correct it or add notes. All changes will be seen only by you. Learn more »
launch autoscroll
font size
0
reset
how to read this tab
guitar tuner
edit
Autoscroll
slow
fast
+/-
esc
set tempo
stop
Author
Difficulty
1.                            Song in the Breeze
2.                         The Outlaws-Outlaws 1975
3.                        Words and music-Henry Paul
-------------------------------------------------------------------------------
Tabbed by: Duane Baldwin
Email: duane&julie@gmail.com

Tuning: EADGBE

Intro: Guitar I
e|--3----x-----x---|--0---x---0--0---x--|-----x--------x--|
B|--3----x-----x---|--1---x---1--1---x--|--8--x--8--8--x--|
G|--3----x-----x---|--0---x---0--0---x--|--8--x--8--8--x--|
D|--5----x-----x---|--2---x---2--2---x--|--8--x--8--8--x--|
A|--5----x-----x---|--3---x---3--3---x--|--6--x--6--6--x--|
E|--3----x-----x---|--------------------|-----x--------x--|

Intro: Guitar II
e|--3--x--3--3--3--|--8---x--8---8---x--|-----x-----------|
B|--3--x--3--3--3--|--8---x--8---8---x--|--8--x--8--8--8--|
G|--3--x--3--3--3--|--9---x--9---9---x--|--8--x--8--8--8--|
D|--5--x--5--5--5--|--10--x--10--10--x--|--8--x--8--8--8--|
A|--5--x--5--5--5--|--10--x--10--10--x--|--6--x--6--6--6--|
E|--3--x--3--3--3--|--8---x--8---8---x--|-----x-----------|

Guitar I
e|--3--x--3--3--x--|-----x--------x--|--1--x--1--1--x--|
B|--3--x--3--3--x--|--3--x--3--3--x--|--1--x--1--1--x--|
G|--3--x--3--5--x--|--3--x--3--3--x--|--2--x--2--2--x--|
D|--5--x--5--5--x--|--3--x--3--3--x--|--3--x--3--3--x--|
A|--5--x--5--5--x--|--1--x--1--1--x--|--3--x--3--3--x--|
E|--3--x--3--3--x--|-----x--------x--|--1--x--1--1--x--|

Guitar II
e|--3--x--3--3--3--|--6--x--6--6--6--|--1--x--1--1--1--|------|
B|--3--x--3--3--3--|--6--x--6--6--6--|--1--x--1--1--1--|--8---|
G|--3--x--3--5--3--|--7--x--7--7--7--|--2--x--2--2--2--|--8---|
D|--5--x--5--5--5--|--8--x--8--8--8--|--3--x--3--3--3--|--8---|
A|--5--x--5--5--5--|--8--x--8--8--8--|--3--x--3--3--3--|--6---|
E|--3--x--3--3--3--|--6--x--6--6--6--|--1--x--1--1--1--|------|

Guitar I
e|-3/6---5---3---|---------------------------|
B|---------------|--5/6----------------------|
G|---------------|--4/5---3p0----------------|
D|---------------|--------------3---3p0------|
A|---------------|-----------------------3---|
E|---------------|---------------------------|

Guitar III
e|----------------|-------------------------|
B|--8---6---------|-------------------------|
G|----------7\5---|--3---5p3----------------|
D|----------------|------------5---5p3------|
A|----------------|---------------------5---|
E|----------------|-------------------------|

1st Verse: Guitar I
e|--3--x--3-------------------|--3--x--3--3----|----x----------|
B|--3--x--3-------------------|--3--x--3--3----|----x--8--8--8/|
G|--3--x--3---------3p0----0--|--3--x--3--3--7/|/8--x--8--8--8/|
D|--5--x--5---0h3--------3----|--5--x--5--5--7/|/8--x--8--8--8/|
A|--5--x--5-------------------|--5--x--5--5--5/|/6-----6--6--6/|
E|--3--x--3-------------------|--3--x--3--3----|---------------|

1st Verse: Guitar II
e|--3---3----3-----3-----3----|--3--3--3--3--3-|----------------|
B|--3---3----3-----3-----3----|--3--3--3--3--3-|--8--8--8--8--8-|
G|--3---3----3-----3-----3----|--3--3--3--3--3-|--8--8--8--8--8-|
D|--5---5----5-----5-----5----|--5--5--5--5--5-|--8--8--8--8--8-|
A|--5---5----5-----5-----5----|--5--5--5--5--5-|--6--6--6--6--6-|
E|--3---3----3-----3-----3----|--3--3--3--3--3-|----------------|

1st Verse: Guitar III
e|--3---x----3-----3-----3----|--3--x--3--3--3-|--3--x--3--3--3-|
B|--3---x----3-----3-----3----|--3--x--3--3--3-|--4--x--4--4--4-|
G|--3---x----3-----3-----3----|--3--x--3--3--3-|--3--x--3--3--3-|
D|--5---x----5-----5-----5----|--5--x--5--5--5-|--0--x--0--0--0-|
A|--5---x----5-----5-----5----|--5--x--5--5--5-|----------------|
E|--3---x----3-----3-----3----|--3--x--3--3--3-|----------------|

Guitar I                                                   * First fill
e|-----x--------------|--3---3---3--3--|--1--x--1--1--1--|-----------------|
B|-----x--10--10--10--|--3---3---3--3--|--1--x--1--1--1--|-----------------|
G|/10--x--10--10--10--|--3---3---3--3--|--2--x--2--2--2--|-----------------|
D|/10--x--10--10--10--|--5---5---5--5--|--3--x--3--3--3--|-----------------|
A|/8---x--8---8---8---|--5---5---5--5--|--3--x--3--3--3--|-----------------|
E|-----x--------------|--3---3---3--3--|--1--x--1--1--1--|-----------------|

Guitar II
e|--1--1--1---1---1---|--3--3--3--3--3-|--1--1--1--1--1--|-----------------|
B|--1--1--1---1---1---|--3--3--3--3--3-|--1--1--1--1--1--|--8--8--8--8--8--|
G|--2--2--2---2---2---|--3--3--3--3--3-|--2--2--2--2--2--|--8--8--8--8--8--|
D|--3--3--3---3---3---|--5--5--5--5--5-|--3--3--3--3--3--|--8--8--8--8--8--|
A|--3--3--3---3---3---|--5--5--5--5--5-|--3--3--3--3--3--|--6--6--6--6--6--|
E|--1--1--1---1---1---|--3--3--3--3--3-|--1--1--1--1--1--|-----------------|

Guitar III
e|--1--x--1---1---1---|--3--x--3--3--3-|--1--x--1--1--1--|--3--3--3--3--3--|
B|--1--x--1---1---1---|--3--x--3--3--3-|--1--x--1--1--1--|--4--4--4--4--4--|
G|--2--x--2---2---2---|--3--x--3--3--3-|--2--x--2--2--2--|--3--3--3--3--3--|
D|--3--x--3---3---3---|--5--x--5--5--5-|--3--x--3--3--3--|--0--0--0--0--0--|
A|--3--x--3---3---3---|--5--x--5--5--5-|--3--x--3--3--3--|-----------------|
E|--1--x--1---1---1---|--3--x--3--3--3-|--1--x--1--1--1--|-----------------|

Guitar I
e|-----------------|--3--x--3-------------------|--3--x--3--3----|
B|-----------------|--3--x--3-------------------|--3--x--3--3----|
G|-----------------|--3--x--3---------3p0----0--|--3--x--3--3--7/|
D|-----------------|--5--x--5---0h3--------3----|--5--x--5--5--7/|
A|-----------------|--5--x--5-------------------|--5--x--5--5--5/|
E|-----------------|--3--x--3-------------------|--3--x--3--3----|

Guitar II
e|-----------------|--3---3----3-----3-----3----|--3--3--3--3--3-|
B|--8--8--8--8--8--|--3---3----3-----3-----3----|--3--3--3--3--3-|
G|--8--8--8--8--8--|--3---3----3-----3-----3----|--3--3--3--3--3-|
D|--8--8--8--8--8--|--5---5----5-----5-----5----|--5--5--5--5--5-|
A|--6--6--6--6--6--|--5---5----5-----5-----5----|--5--5--5--5--5-|
E|-----------------|--3---3----3-----3-----3----|--3--3--3--3--3-|

Guitar III
e|--3--3--3--3--3--|--3---x----3-----3-----3----|--3--x--3--3--3-|
B|--4--4--4--4--4--|--3---x----3-----3-----3----|--3--x--3--3--3-|
G|--3--3--3--3--3--|--3---x----3-----3-----3----|--3--x--3--3--3-|
D|--0--0--0--0--0--|--5---x----5-----5-----5----|--5--x--5--5--5-|
A|-----------------|--5---x----5-----5-----5----|--5--x--5--5--5-|
E|-----------------|--3---x----3-----3-----3----|--3--x--3--3--3-|

Guitar I
e|----x----------|-----x--------------|--3---3---3--3--|--1--x--1--1--1--|
B|----x--8--8--8/|-----x--10--10--10--|--3---3---3--3--|--1--x--1--1--1--|
G|/8--x--8--8--8/|/10--x--10--10--10--|--3---3---3--3--|--2--x--2--2--2--|
D|/8--x--8--8--8/|/10--x--10--10--10--|--5---5---5--5--|--2--x--2--2--2--|
A|/6-----6--6--6/|/8---x--8---8---8---|--5---5---5--5--|--3--x--3--3--3--|
E|---------------|-----x--------------|--3---3---3--3--|--1--x--1--1--1--|

Guitar II
e|----------------|--1--x--1---1---1--|--3--3--3--3--3-|--1--1--1--1--1--|
B|--8--8--8--8--8-|--1--x--1---1---1--|--3--3--3--3--3-|--1--1--1--1--1--|
G|--8--8--8--8--8-|--2--x--2---2---2--|--3--3--3--3--3-|--2--2--2--2--2--|
D|--8--8--8--8--8-|--3--x--3---3---3--|--5--5--5--5--5-|--3--3--3--3--3--|
A|--6--6--6--6--6-|--3--x--3---3---3--|--5--5--5--5--5-|--3--3--3--3--3--|
E|----------------|--1--x--1---1---1--|--3--3--3--3--3-|--1--1--1--1--1--|

Guitar III
e|--3--x--3--3--3-|--1--x--1---1---1---|--3--x--3--3--3-|--1--x--1--1--1--|
B|--4--x--4--4--4-|--1--x--1---1---1---|--3--x--3--3--3-|--1--x--1--1--1--|
G|--3--x--3--3--3-|--2--x--2---2---2---|--3--x--3--3--3-|--2--x--2--2--2--|
D|--0--x--0--0--0-|--3--x--3---3---3---|--5--x--5--5--5-|--3--x--3--3--3--|
A|----------------|--3--x--3---3---3---|--5--x--5--5--5-|--3--x--3--3--3--|
E|----------------|--1--x--1---1---1---|--3--x--3--3--3-|--1--x--1--1--1--|

1st Solo Rhythm: Guitar II
e|----------------|----------------|--3--3--3--3--3-|--8---x--8---8---8---|
B|--8--8--8--8--8-|--8--8--8--8--8-|--3--3--3--3--3-|--8---x--8---8---8---|
G|--8--8--8--8--8-|--8--8--8--8--8-|--3--3--3--3--3-|--9---x--9---9---9---|
D|--8--8--8--8--8-|--8--8--8--8--8-|--5--5--5--5--5-|--10--x--10--10--10--|
A|--6--6--6--6--6-|--6--6--6--6--6-|--5--5--5--5--5-|--10--x--10--10--10--|
E|----------------|----------------|--3--3--3--3--3-|--8---x--8---8---8---|

1st Solo rhythm: Guitar III
e|--3--x--3--3--3-|--3--x--3--3--3-|--3--x--3--3--3-|--0---x---0--0---0--|
B|--4--x--4--4--4-|--4--x--4--4--4-|--3--x--3--3--3-|--1---x---1--1---1--|
G|--3--x--3--3--3-|--3--x--3--3--3-|--3--x--3--3--3-|--0---x---0--0---0--|
D|--0--x--0--0--0-|--0--x--0--0--0-|--5--x--5--5--5-|--2---x---2--2---2--|
A|----------------|----------------|--5--x--5--5--5-|--3---x---3--3---3--|
E|----------------|----------------|--3--x--3--3--3-|--------------------|

Guitar II
e|-----x----------|--3--x--3--3--3-|--6--x--6--6--6--|--1--x--1---1---1---|
B|--8--x--8--8--8-|--3--x--3--3--3-|--6--x--6--6--6--|--1--x--1---1---1---|
G|--8--x--8--8--8-|--3--x--3--3--3-|--7--x--7--7--7--|--2--x--2---2---2---|
D|--8--x--8--8--8-|--5--x--5--5--5-|--8--x--8--8--8--|--3--x--3---3---3---|
A|--6-----6--6--6-|--5--x--5--5--5-|--8--x--8--8--8--|--3--x--3---3---3---|
E|----------------|--3--x--3--3--3-|--6-----6--6--6--|--1--x--1---1---1---|

Guitar III
e|--3--x--3--3--3-|--3--x--3--3--3-|-----x-----------|--1--x--1---1---1---|
B|--4--x--4--4--4-|--3--x--3--3--3-|--3--x--3--3--3--|--1--x--1---1---1---|
G|--3--x--3--3--3-|--3--x--3--3--3-|--3--x--3--3--3--|--2--x--2---2---2---|
D|--0--x--0--0--0-|--5--x--5--5--5-|--3--x--3--3--3--|--3--x--3---3---3---|
A|----------------|--5--x--5--5--5-|--1--x--1--1--1--|--3--x--3---3---3---|
E|----------------|--3--x--3--3--3-|-----x-----------|--1--x--1---1---1---|

Lead into 2nd Verse: Guitar I
e|---3/6---5---3---|---------------------------|
B|-----------------|--5/6----------------------|
G|-----------------|--4/5----6\5---3-----------|
D|-----------------|-------------------5---3---|
A|-----------------|---------------------------|
E|-----------------|---------------------------|

Lead into 2nd verse: Guitar II
e|---------|
B|---8-----|
G|---8-----|
D|---8-----|
A|---6-----|
E|---------|

Lead into 2nd verse: Guitar III
e|------------------|------------------------------|
B|---8----6---------|------------------------------|
G|------------7\5---|---3----5p3-------------------|
D|------------------|---------------5----5p3-------|
A|------------------|--------------------------5---|
E|------------------|------------------------------|

2nd Verse: Guitar I
e|--3--x--3-------------------|--3--x--3--3----|----x----------|
B|--3--x--3-------------------|--3--x--3--3----|----x--8--8--8/|
G|--3--x--3---------3p0----0--|--3--x--3--3--7/|/8--x--8--8--8/|
D|--5--x--5---0h3--------3----|--5--x--5--5--7/|/8--x--8--8--8/|
A|--5--x--5-------------------|--5--x--5--5--5/|/6-----6--6--6/|
E|--3--x--3-------------------|--3--x--3--3----|---------------|

2nd Verse: Guitar II
e|--3---3----3-----3-----3----|--3--3--3--3--3-|----------------|
B|--3---3----3-----3-----3----|--3--3--3--3--3-|--8--8--8--8--8-|
G|--3---3----3-----3-----3----|--3--3--3--3--3-|--8--8--8--8--8-|
D|--5---5----5-----5-----5----|--5--5--5--5--5-|--8--8--8--8--8-|
A|--5---5----5-----5-----5----|--5--5--5--5--5-|--6--6--6--6--6-|
E|--3---3----3-----3-----3----|--3--3--3--3--3-|----------------|

2nd Verse: Guitar III
e|--3---x----3-----3-----3----|--3--x--3--3--3-|--3--x--3--3--3-|
B|--3---x----3-----3-----3----|--3--x--3--3--3-|--4--x--4--4--4-|
G|--3---x----3-----3-----3----|--3--x--3--3--3-|--3--x--3--3--3-|
D|--5---x----5-----5-----5----|--5--x--5--5--5-|--0--x--0--0--0-|
A|--5---x----5-----5-----5----|--5--x--5--5--5-|----------------|
E|--3---x----3-----3-----3----|--3--x--3--3--3-|----------------|

Guitar I                                                  
e|-----x--------------|--3---3---3--3--|--1--x--1--1--1--|--------------3--|
B|-----x--10--10--10--|--3---3---3--3--|--1--x--1--1--1--|----------3------|
G|/10--x--10--10--10--|--3---3---3--3--|--2--x--2--2--2--|------3----------|
D|/10--x--10--10--10--|--5---5---5--5--|--3--x--3--3--3--|--5--------------|
A|/8---x--8---8---8---|--5---5---5--5--|--3--x--3--3--3--|-----------------|
E|-----x--------------|--3---3---3--3--|--1--x--1--1--1--|-----------------|

Guitar II
e|--1--1--1---1---1---|--3--3--3--3--3-|--1--1--1--1--1--|-----------------|
B|--1--1--1---1---1---|--3--3--3--3--3-|--1--1--1--1--1--|--8--8--8--8--8--|
G|--2--2--2---2---2---|--3--3--3--3--3-|--2--2--2--2--2--|--8--8--8--8--8--|
D|--3--3--3---3---3---|--5--5--5--5--5-|--3--3--3--3--3--|--8--8--8--8--8--|
A|--3--3--3---3---3---|--5--5--5--5--5-|--3--3--3--3--3--|--6--6--6--6--6--|
E|--1--1--1---1---1---|--3--3--3--3--3-|--1--1--1--1--1--|-----------------|

Guitar III                                                * 2nd Fill
e|--1--x--1---1---1---|--3--x--3--3--3-|--1--x--1--1--1--|-----------------|
B|--1--x--1---1---1---|--3--x--3--3--3-|--1--x--1--1--1--|-----------------|
G|--2--x--2---2---2---|--3--x--3--3--3-|--2--x--2--2--2--|-----------------|
D|--3--x--3---3---3---|--5--x--5--5--5-|--3--x--3--3--3--|-----------------|
A|--3--x--3---3---3---|--5--x--5--5--5-|--3--x--3--3--3--|-----------------|
E|--1--x--1---1---1---|--3--x--3--3--3-|--1--x--1--1--1--|-----------------|

Guitar I
e|---------------3--|--3--x--3-------------------|--3--x--3--3----|
B|------------3-----|--3--x--3-------------------|--3--x--3--3----|
G|-------3----------|--3--x--3---------3p0----0--|--3--x--3--3--7/|
D|--5---------------|--5--x--5---0h3--------3----|--5--x--5--5--7/|
A|------------------|--5--x--5-------------------|--5--x--5--5--5/|
E|------------------|--3--x--3-------------------|--3--x--3--3----|
Guitar II
e|------------------|--3---3----3-----3-----3----|--3--3--3--3--3-|
B|--8--8--8--8--8---|--3---3----3-----3-----3----|--3--3--3--3--3-|
G|--8--8--8--8--8---|--3---3----3-----3-----3----|--3--3--3--3--3-|
D|--8--8--8--8--8---|--5---5----5-----5-----5----|--5--5--5--5--5-|
A|--6--6--6--6--6---|--5---5----5-----5-----5----|--5--5--5--5--5-|
E|------------------|--3---3----3-----3-----3----|--3--3--3--3--3-|

Guitar III
e|-----------------|--3---x----3-----3-----3----|--3--x--3--3--3-|
B|-----------------|--3---x----3-----3-----3----|--3--x--3--3--3-|
G|-----------------|--3---x----3-----3-----3----|--3--x--3--3--3-|
D|-----------------|--5---x----5-----5-----5----|--5--x--5--5--5-|
A|-----------------|--5---x----5-----5-----5----|--5--x--5--5--5-|
E|-----------------|--3---x----3-----3-----3----|--3--x--3--3--3-|

Guitar I
e|----x----------|-----x--------------|--3---3---3--3--|--1--x--1--1--1--|
B|----x--8--8--8/|-----x--10--10--10--|--3---3---3--3--|--1--x--1--1--1--|
G|/8--x--8--8--8/|/10--x--10--10--10--|--3---3---3--3--|--2--x--2--2--2--|
D|/8--x--8--8--8/|/10--x--10--10--10--|--5---5---5--5--|--2--x--2--2--2--|
A|/6-----6--6--6/|/8---x--8---8---8---|--5---5---5--5--|--3--x--3--3--3--|
E|---------------|-----x--------------|--3---3---3--3--|--1--x--1--1--1--|

Guitar II
e|----------------|--1--x--1---1---1---|--3--3--3--3--3-|--1--1--1--1--1--|
B|--8--8--8--8--8-|--1--x--1---1---1---|--3--3--3--3--3-|--1--1--1--1--1--|
G|--8--8--8--8--8-|--2--x--2---2---2---|--3--3--3--3--3-|--2--2--2--2--2--|
D|--8--8--8--8--8-|--3--x--3---3---3---|--5--5--5--5--5-|--3--3--3--3--3--|
A|--6--6--6--6--6-|--3--x--3---3---3---|--5--5--5--5--5-|--3--3--3--3--3--|
E|----------------|--1--x--1---1---1---|--3--3--3--3--3-|--1--1--1--1--1--|

Guitar III
e|--3--x--3--3--3-|--1--x--1---1---1---|--3--x--3--3--3-|--1--x--1--1--1--|
B|--4--x--4--4--4-|--1--x--1---1---1---|--3--x--3--3--3-|--1--x--1--1--1--|
G|--3--x--3--3--3-|--2--x--2---2---2---|--3--x--3--3--3-|--2--x--2--2--2--|
D|--0--x--0--0--0-|--3--x--3---3---3---|--5--x--5--5--5-|--3--x--3--3--3--|
A|----------------|--3--x--3---3---3---|--5--x--5--5--5-|--3--x--3--3--3--|
E|----------------|--1--x--1---1---1---|--3--x--3--3--3-|--1--x--1--1--1--|

Guitar I
e|-------------------3---|----6------| 
B|------------3----------|----8------|
G|-------3---------------|----8------|
D|---5-------------------|-----------|
A|-----------------------|-----------|
E|-----------------------|-----------|

Guitar II
e|--6---6---6---6---6---|---6----|
B|--8---8---8---8---8---|---8----|
G|--8---8---8---8---8---|---8----|
D|--6---6---6---6---6---|---8----|
A|--6---6---6---6---6---|---6----|
E|----------------------|--------|

Guitar III
e|--6---6---6---6---6---|---6----|
B|--8---8---8---8---8---|---6----|
G|--8---8---8---8---8---|---3----|
D|--6---6---6---6---6---|---3----|
A|--6---6---6---6---6---|--------|
E|----------------------|--------|

Chorus: Guitar I
e|------------------6-----------|--------------------------|
B|-----------------------6------|-------10------11p10------|
G|--------------7------------7--|--10-------10---------10--|
D|--8-------8-------------------|--10----------------------|
A|--8---8-----------------------|--8-----------------------|
E|--6---------------------------|--------------------------|

Guitar II & III
e|----6----6----6----6-----6----|--------------------------|
B|----6----6----6----6-----6----|--10---10---10---10---10--| 
G|----7----7----7----7-----7----|--10---10---10---10---10--|
D|----8----8----8----8-----8----|--10---10---10---10---10--| 
A|----8----8----8----8-----8----|--8----8----8----8----8---| 
E|----6----6----6----6-----6----|--------------------------| 

Guitar I
e|--------------------|--------------------------|--4-------4----------|
B|--8-----8----9---8--|--------------------------|--4-----------4------|
G|--8-----8-----------|--7----7h8p7--------------|--5----5----------5--|
D|--8-----8-----------|--8------------8-------8--|--6----6-------------|
A|--6-----------------|--8----------------8---8--|--6------------------|
E|--------------------|--6--------------------6--|--4------------------|

Guitar II & III
e|----------------|----6----6----6----6-----6----|--4---4---4---4---4---|
B|--8--8--8--8--8-|----6----6----6----6-----6----|--4---4---4---4---4---|
G|--8--8--8--8--8-|----7----7----7----7-----7----|--5---5---5---5---5---|
D|--8--8--8--8--8-|----8----8----8----8-----8----|--6---6---6---6---6---|
A|--6--6--6--6--6-|----8----8----8----8-----8----|--6---6---6---6---6---|
E|----------------|----6----6----6----6-----6----|--4---4---4---4---4---|

Guitar I
e|--3-------3---------|------1--------3---------5--|-------6--------8--------|
B|--3----------3------|----------------------------|-------------------------|
G|--3---3---------3---|-1/2------2/3-------3/5-----|--5/7-----7/8-------9/10-|
D|--5---5-------------|----------------------------|-------------------------|
A|--5-----------------|----------------------------|-------------------------|
E|--3-----------------|----------------------------|-------------------------|

Guitar II & III
e|--3---3---3---3---3-|---1----1----1----1----1----|---1---1----1---1----1---|
B|--3---3---3---3---3-|---1----1----1----1----1----|---1---1----1---1----1---|
G|--3---3---3---3---3-|---2----2----2----2----2----|---2---2----2---2----2---|
D|--5---5---5---5---5-|---3----3----3----3----3----|---3---3----3---3----3---|
A|--5---5---5---5---5-|---3----3----3----3----3----|---3---3----3---3----3---|
E|--3---3---3---3---3-|---1----1----1----1----1----|---1---1----1---1----1---|

Guitar I
e|-------10--------|--------------------------|--------------------|
B|-----------------|-------10------11p10------|--8-----8----9---8--|
G|-----------------|--10-------10---------10--|--8-----8-----------|
D|-----------------|--10----------------------|--8-----8-----------|
A|-----------------|--8-----------------------|--6-----------------|
E|-----------------|--------------------------|--------------------|

Guitar II & III
e|--6--6--6--6--6--|--------------------------|--------------------|
B|--6--6--6--6--6--|--10---10---10---10---10--|--8---8---8---8--8--| 
G|--7--7--7--7--7--|--10---10---10---10---10--|--8---8---8---8--8--|
D|--8--8--8--8--8--|--10---10---10---10---10--|--8---8---8---8--8--|
A|--8--8--8--8--8--|--8----8----8----8----8---|--6---6---6---6--6--| 
E|--6--6--6--6--6--|--------------------------|--------------------| 

Guitar I
e|--------------------------|--4-------4----------|--3-------3---------|
B|--------------------------|--4-----------4------|--3----------3------|
G|--7----7h8p7--------------|--5----5----------5--|--3---3---------3---|
D|--8------------8-------8--|--6----6-------------|--5---5-------------|
A|--8----------------8---8--|--6------------------|--5-----------------|
E|--6--------------------6--|--4------------------|--3-----------------|

guitar II & III
e|---6---6----6----6----6---|--4---4---4---4---4--|--3---3---3---3---3-|
B|---6---6----6----6----6---|--4---4---4---4---4--|--3---3---3---3---3-|
G|---7---7----7----7----7---|--5---5---5---5---5--|--3---3---3---3---3-|
D|---8---8----8----8----8---|--6---6---6---6---6--|--5---5---5---5---5-|
A|---8---8----8----8----8---|--6---6---6---6---6--|--5---5---5---5---5-|
E|---6---6----6----6----6---|--4---4---4---4---4--|--3---3---3---3---3-|

All Guitars
e|---1---1---1---1---1---|
B|---1---1---1---1---1---|
G|---2---2---2---2---2---|
D|---3---3---3---3---3---|
A|---3---3---3---3---3---|
E|---1---1---1---1---1---|

Main Solo: Guitars II & III
e|---1---1---1---1---1---1---1---1--|---6---6----6----6----6---|
B|---1---1---1---1---1---1---1---1--|---6---6----6----6----6---|
G|---2---2---2---2---2---2---2---2--|---7---7----7----7----7---|
D|---3---3---3---3---3---3---3---3--|---8---8----8----8----8---|
A|---3---3---3---3---3---3---3---3--|---8---8----8----8----8---|
E|---1---1---1---1---1---1---1---1--|---6---6----6----6----6---|

Guitar II & III
e|--------------------------|--------------------|---6---6----6----6----6---|
B|--10---10---10---10---10--|--8---8---8---8--8--|---6---6----6----6----6---| 
G|--10---10---10---10---10--|--8---8---8---8--8--|---7---7----7----7----7---| 
D|--10---10---10---10---10--|--8---8---8---8--8--|---8---8----8----8----8---| 
A|--8----8----8----8----8---|--6---6---6---6--6--|---8---8----8----8----8---|
E|--------------------------|--------------------|---6---6----6----6----6---|

Guitars II & III
e|--4---4---4---4---4--|--3---3---3---3---3-|-----1----|
B|--4---4---4---4---4--|--3---3---3---3---3-|-----1----|
G|--5---5---5---5---5--|--3---3---3---3---3-|-----2----|
D|--6---6---6---6---6--|--5---5---5---5---5-|-----3----|
A|--6---6---6---6---6--|--5---5---5---5---5-|-----3----|
E|--4---4---4---4---4--|--3---3---3---3---3-|-----1----|

All Guitars
e|---1----1----1----1----1----1----1----1----|
B|---1----1----1----1----1----1----1----1----|
G|---2----2----2----2----2----2----2----2----|
D|---3----3----3----3----3----3----3----3----|
A|---3----3----3----3----3----3----3----3----|
E|---1----1----1----1----1----1----1----1----|

3rd Verse: Guitar I
e|--3--x--3-------------------|--3--x--3--3----|----x----------|
B|--3--x--3-------------------|--3--x--3--3----|----x--8--8--8/|
G|--3--x--3---------3p0----0--|--3--x--3--3--7/|/8--x--8--8--8/|
D|--5--x--5---0h3--------3----|--5--x--5--5--7/|/8--x--8--8--8/|
A|--5--x--5-------------------|--5--x--5--5--5/|/6-----6--6--6/|
E|--3--x--3-------------------|--3--x--3--3----|---------------|

3rd Verse: Guitar II
e|--3---3----3-----3-----3----|--3--3--3--3--3-|----------------|
B|--3---3----3-----3-----3----|--3--3--3--3--3-|--8--8--8--8--8-|
G|--3---3----3-----3-----3----|--3--3--3--3--3-|--8--8--8--8--8-|
D|--5---5----5-----5-----5----|--5--5--5--5--5-|--8--8--8--8--8-|
A|--5---5----5-----5-----5----|--5--5--5--5--5-|--6--6--6--6--6-|
E|--3---3----3-----3-----3----|--3--3--3--3--3-|----------------|

3rd Verse: Guitar III
e|--3---x----3-----3-----3----|--3--x--3--3--3-|--3--x--3--3--3-|
B|--3---x----3-----3-----3----|--3--x--3--3--3-|--4--x--4--4--4-|
G|--3---x----3-----3-----3----|--3--x--3--3--3-|--3--x--3--3--3-|
D|--5---x----5-----5-----5----|--5--x--5--5--5-|--0--x--0--0--0-|
A|--5---x----5-----5-----5----|--5--x--5--5--5-|----------------|
E|--3---x----3-----3-----3----|--3--x--3--3--3-|----------------|

Guitar I                                                  
e|-----x--------------|--3---3---3--3--|--1--x--1--1--1--|-------------------|
B|-----x--10--10--10--|--3---3---3--3--|--1--x--1--1--1--|-------------------|
G|/10--x--10--10--10--|--3---3---3--3--|--2--x--2--2--2--|--7/8--8--8--8--8--|
D|/10--x--10--10--10--|--5---5---5--5--|--3--x--3--3--3--|--7/8--8--8--8--8--|
A|/8---x--8---8---8---|--5---5---5--5--|--3--x--3--3--3--|--5/6--6--6--6--6--|
E|-----x--------------|--3---3---3--3--|--1--x--1--1--1--|-------------------|

Guitar II
e|--1--1--1---1---1---|--3--3--3--3--3-|--1--1--1--1--1--|-----------------|
B|--1--1--1---1---1---|--3--3--3--3--3-|--1--1--1--1--1--|--8--8--8--8--8--|
G|--2--2--2---2---2---|--3--3--3--3--3-|--2--2--2--2--2--|--8--8--8--8--8--|
D|--3--3--3---3---3---|--5--5--5--5--5-|--3--3--3--3--3--|--8--8--8--8--8--|
A|--3--3--3---3---3---|--5--5--5--5--5-|--3--3--3--3--3--|--6--6--6--6--6--|
E|--1--1--1---1---1---|--3--3--3--3--3-|--1--1--1--1--1--|-----------------|

Guitar III                                                * 3nd Fill
e|--1--x--1---1---1---|--3--x--3--3--3-|--1--x--1--1--1--|-----------------|
B|--1--x--1---1---1---|--3--x--3--3--3-|--1--x--1--1--1--|-----------------|
G|--2--x--2---2---2---|--3--x--3--3--3-|--2--x--2--2--2--|-----------------|
D|--3--x--3---3---3---|--5--x--5--5--5-|--3--x--3--3--3--|-----------------|
A|--3--x--3---3---3---|--5--x--5--5--5-|--3--x--3--3--3--|-----------------|
E|--1--x--1---1---1---|--3--x--3--3--3-|--1--x--1--1--1--|-----------------|

Guitar I
e|-------------------|--3--x--3-------------------|--3--x--3--3----|
B|-------------------|--3--x--3-------------------|--3--x--3--3----|
G|--7/8--8--8--8--8--|--3--x--3---------3p0----0--|--3--x--3--3--7/|
D|--7/8--8--8--8--8--|--5--x--5---0h3--------3----|--5--x--5--5--7/|
A|--5/6--6--6--6--6--|--5--x--5-------------------|--5--x--5--5--5/|
E|-------------------|--3--x--3-------------------|--3--x--3--3----|

Guitar II
e|-------------------|--3---3----3-----3-----3----|--3--3--3--3--3-|
B|--8--8--8--8--8----|--3---3----3-----3-----3----|--3--3--3--3--3-|
G|--8--8--8--8--8----|--3---3----3-----3-----3----|--3--3--3--3--3-|
D|--8--8--8--8--8----|--5---5----5-----5-----5----|--5--5--5--5--5-|
A|--6--6--6--6--6----|--5---5----5-----5-----5----|--5--5--5--5--5-|
E|-------------------|--3---3----3-----3-----3----|--3--3--3--3--5-|

Guitar III
e|-----------------|--3---x----3-----3-----3----|--3--x--3--3--3-|
B|-----------------|--3---x----3-----3-----3----|--3--x--3--3--3-|
G|-----------------|--3---x----3-----3-----3----|--3--x--3--3--3-|
D|-----------------|--5---x----5-----5-----5----|--5--x--5--5--5-|
A|-----------------|--5---x----5-----5-----5----|--5--x--5--5--5-|
E|-----------------|--3---x----3-----3-----3----|--3--x--3--3--3-|

Guitar I
e|----x----------|-----x--------------|--3---3---3--3--|--1--x--1--1--1--|
B|----x--8--8--8/|-----x--10--10--10--|--3---3---3--3--|--1--x--1--1--1--|
G|/8--x--8--8--8/|/10--x--10--10--10--|--3---3---3--3--|--2--x--2--2--2--|
D|/8--x--8--8--8/|/10--x--10--10--10--|--5---5---5--5--|--2--x--2--2--2--|
A|/6-----6--6--6/|/8---x--8---8---8---|--5---5---5--5--|--3--x--3--3--3--|
E|---------------|-----x--------------|--3---3---3--3--|--1--x--1--1--1--|

Guitar II
e|----------------|--1--x--1---1---1---|--3--3--3--3--3-|--1--1--1--1--1--|
B|--8--8--8--8--8-|--1--x--1---1---1---|--3--3--3--3--3-|--1--1--1--1--1--|
G|--8--8--8--8--8-|--2--x--2---2---2---|--3--3--3--3--3-|--2--2--2--2--2--|
D|--8--8--8--8--8-|--3--x--3---3---3---|--5--5--5--5--5-|--3--3--3--3--3--|
A|--6--6--6--6--6-|--3--x--3---3---3---|--5--5--5--5--5-|--3--3--3--3--3--|
E|----------------|--1--x--1---1---1---|--3--3--3--3--3-|--1--1--1--1--1--|

Guitar III
e|--3--x--3--3--3-|--1--x--1---1---1---|--3--x--3--3--3-|--1--x--1--1--1--|
B|--4--x--4--4--4-|--1--x--1---1---1---|--3--x--3--3--3-|--1--x--1--1--1--|
G|--3--x--3--3--3-|--2--x--2---2---2---|--3--x--3--3--3-|--2--x--2--2--2--|
D|--0--x--0--0--0-|--3--x--3---3---3---|--5--x--5--5--5-|--3--x--3--3--3--|
A|----------------|--3--x--3---3---3---|--5--x--5--5--5-|--3--x--3--3--3--|
E|----------------|--1--x--1---1---1---|--3--x--3--3--3-|--1--x--1--1--1--|

Guitar I
e|-------------------3---|----6------| 
B|------------3----------|----8------|
G|-------3---------------|----8------|
D|---5-------------------|-----------|
A|-----------------------|-----------|
E|-----------------------|-----------|

Guitar II
e|--6---6---6---6---6---|---6----|
B|--8---8---8---8---8---|---8----|
G|--8---8---8---8---8---|---8----|
D|--6---6---6---6---6---|---8----|
A|--6---6---6---6---6---|---6----|
E|----------------------|--------|

Guitar III
e|--6---6---6---6---6---|---6----|
B|--8---8---8---8---8---|---6----|
G|--8---8---8---8---8---|---3----|
D|--6---6---6---6---6---|---3----|
A|--6---6---6---6---6---|--------|
E|----------------------|--------|

Chorus: Guitar I
e|------------------6-----------|--------------------------|
B|-----------------------6------|-------10------11p10------|
G|--------------7------------7--|--10-------10---------10--|
D|--8-------8-------------------|--10----------------------|
A|--8---8-----------------------|--8-----------------------|
E|--6---------------------------|--------------------------|

Guitar II & III
e|----6----6----6----6-----6----|--------------------------|
B|----6----6----6----6-----6----|--10---10---10---10---10--| 
G|----7----7----7----7-----7----|--10---10---10---10---10--|
D|----8----8----8----8-----8----|--10---10---10---10---10--| 
A|----8----8----8----8-----8----|--8----8----8----8----8---| 
E|----6----6----6----6-----6----|--------------------------| 

Guitar I
e|--------------------|--------------------------|--4-------4----------|
B|--8-----8----9---8--|--------------------------|--4-----------4------|
G|--8-----8-----------|--7----7h8p7--------------|--5----5----------5--|
D|--8-----8-----------|--8------------8-------8--|--6----6-------------|
A|--6-----------------|--8----------------8---8--|--6------------------|
E|--------------------|--6--------------------6--|--4------------------|

Guitar II & III
e|----------------|----6----6----6----6-----6----|--4---4---4---4---4---|
B|--8--8--8--8--8-|----6----6----6----6-----6----|--4---4---4---4---4---|
G|--8--8--8--8--8-|----7----7----7----7-----7----|--5---5---5---5---5---|
D|--8--8--8--8--8-|----8----8----8----8-----8----|--6---6---6---6---6---|
A|--6--6--6--6--6-|----8----8----8----8-----8----|--6---6---6---6---6---|
E|----------------|----6----6----6----6-----6----|--4---4---4---4---4---|

Guitar I
e|--3-------3---------|------1--------3---------5--|-------6--------8--------|
B|--3----------3------|----------------------------|-------------------------|
G|--3---3---------3---|-1/2------2/3-------3/5-----|--5/7-----7/8-------9/10-|
D|--5---5-------------|----------------------------|-------------------------|
A|--5-----------------|----------------------------|-------------------------|
E|--3-----------------|----------------------------|-------------------------|

Guitar II & III
e|--3---3---3---3---3-|---1----1----1----1----1----|---1---1----1---1----1---|
B|--3---3---3---3---3-|---1----1----1----1----1----|---1---1----1---1----1---|
G|--3---3---3---3---3-|---2----2----2----2----2----|---2---2----2---2----2---|
D|--5---5---5---5---5-|---3----3----3----3----3----|---3---3----3---3----3---|
A|--5---5---5---5---5-|---3----3----3----3----3----|---3---3----3---3----3---|
E|--3---3---3---3---3-|---1----1----1----1----1----|---1---1----1---1----1---|

Guitar I
e|-------10--------|--------------------------|--------------------|
B|-----------------|-------10------11p10------|--8-----8----9---8--|
G|-----------------|--10-------10---------10--|--8-----8-----------|
D|-----------------|--10----------------------|--8-----8-----------|
A|-----------------|--8-----------------------|--6-----------------|
E|-----------------|--------------------------|--------------------|

Guitar II & III
e|--6--6--6--6--6--|--------------------------|--------------------|
B|--6--6--6--6--6--|--10---10---10---10---10--|--8---8---8---8--8--| 
G|--7--7--7--7--7--|--10---10---10---10---10--|--8---8---8---8--8--|
D|--8--8--8--8--8--|--10---10---10---10---10--|--8---8---8---8--8--|
A|--8--8--8--8--8--|--8----8----8----8----8---|--6---6---6---6--6--| 
E|--6--6--6--6--6--|--------------------------|--------------------| 

Guitar I
e|--------------------------|--4-------4----------|--3-------3---------|
B|--------------------------|--4-----------4------|--3----------3------|
G|--7----7h8p7--------------|--5----5----------5--|--3---3---------3---|
D|--8------------8-------8--|--6----6-------------|--5---5-------------|
A|--8----------------8---8--|--6------------------|--5-----------------|
E|--6--------------------6--|--4------------------|--3-----------------|

Guitar II & III
e|---6---6----6----6----6---|--4---4---4---4---4--|--3---3---3---3---3-|
B|---6---6----6----6----6---|--4---4---4---4---4--|--3---3---3---3---3-|
G|---7---7----7----7----7---|--5---5---5---5---5--|--3---3---3---3---3-|
D|---8---8----8----8----8---|--6---6---6---6---6--|--5---5---5---5---5-|
A|---8---8----8----8----8---|--6---6---6---6---6--|--5---5---5---5---5-|
E|---6---6----6----6----6---|--4---4---4---4---4--|--3---3---3---3---3-|

All Guitars
e|---1---1---1---1---1---|---1----1----1----1----1----1----1----1----|
B|---1---1---1---1---1---|---1----1----1----1----1----1----1----1----|
G|---2---2---2---2---2---|---2----2----2----2----2----2----2----2----|
D|---3---3---3---3---3---|---3----3----3----3----3----3----3----3----|
A|---3---3---3---3---3---|---3----3----3----3----3----3----3----3----|
E|---1---1---1---1---1---|---1----1----1----1----1----1----1----1----|

Outro: Guitar I
e|------------|---------------------|------------|---------------------|
B|------------|---------------------|------------|---------------------|
G|--5fbr--3---|--2---3---2----------|--5fbr--3---|--2---3---2----------|
D|------------|--------------3---5--|------------|--------------3---5--|
A|------------|---------------------|------------|---------------------|
E|------------|---------------------|------------|---------------------|

Outro: Guitar II
e|-----1------|---------------------|-----1------|---------------------|
B|-----1------|---------------------|-----1------|---------------------|
G|-----2------|---------------------|-----2------|---------------------|
D|-----3------|---------------------|-----3------|---------------------|
A|-----3------|---------------------|-----3------|---------------------|
E|-----1------|---------------------|-----1------|---------------------|

Outro: Guitar III
e|------------|----------------------|------------|----------------------|
B|--4fbr--3---|--1---3---1-----------|--4fbr--3---|--1---3---1-----------|
G|------------|--------------2---3---|------------|--------------2---3---|
D|------------|----------------------|------------|----------------------|
A|------------|----------------------|------------|----------------------|
E|------------|----------------------|------------|----------------------|

All Guitars
e|-----3--------|
B|-----3--------|
G|-----3--------|
D|-----5--------|
A|-----5--------|
E|-----3--------|

Intro Solo:
e|---------------|-----------------------------------------------|
B|--------6---8--|-------6---8--8---6----------------------------|
G|--4/7----------|--4/7-----------------7\5---3---5fbr---3-------|
D|---------------|-------------------------------------------5---|
A|---------------|-----------------------------------------------|
E|---------------|-----------------------------------------------|

e|-------------------3---------------|---------------------------|
B|----------------3-----3---6---6fb--|--6pbr---3-----------------|
G|------3---5fb----------------------|------------5fbr---3---5---|
D|---5-------------------------------|---------------------------|
A|-----------------------------------|---------------------------|
E|-----------------------------------|---------------------------|

e|------------------------------|
B|------------------6---8---6---|
G|---5---3---5/7----------------|
D|------------------------------|
A|------------------------------|
E|------------------------------|

First fill: Let notes ring
e|----------------8-------|--10---6---------|
B|-----------8--------6---|----------8------|
G|-------8----------------|--------------8--|
D|------------------------|-----------------|
A|--6---------------------|-----------------|
E|------------------------|-----------------|

2nd Solo:
e|--11--11----------------------------------------------------|
B|--11--11---10p8--10p8--10p8--10p8--10p8---------------------|
G|-----------10p8--10p8--10p8--10p8--10p8---10\---12\---10\---|
D|------------------------------------------10\---12\---10\---|
A|------------------------------------------------------------|
E|------------------------------------------------------------|

e|--6--3------------------------|------------------------3------------------|
B|--6--3------------------------|----------3----------------6p5p3--------5--|
G|--------5fbr--3---5p3---------|----------3--------5fb------------5--3--5--|
D|-----------------------5---5--|-------3-----5--3--------------------------|
A|------------------------------|--3h5--------------------------------------|
E|------------------------------|-------------------------------------------|

e|--------------------------|------------------------------|
B|--3--------------------3--|------------------------------|
G|--3--------------------3--|--5fbr---3-----5/7---3--------|
D|-----5--------3---3h5-----|------------5-----------3--5--|
A|---------3h5--------------|------------------------------|
E|--------------------------|------------------------------|

e|---------------------3--|
B|--6--------3-----3---3--|
G|--5fbr-----3-----3------|
D|--------5-----5---------|
A|------------------------|
E|------------------------|

2nd Fill
e|------------------|---------------------|
B|--6---8---8---8---|--8---6---8fbr---8---|
G|------------------|---------------------|
D|------------------|---------------------|
A|------------------|---------------------|
E|------------------|---------------------|

Main Solo
e|--13---------------------------|-----------------------------------------|
B|------13-----------------------|--11---11---11fbr---10--10---11--10------|
G|----------12pbr---10--12---10--|-------------------------------------12--|
D|-------------------------------|-----------------------------------------|
A|-------------------------------|-----------------------------------------|
E|-------------------------------|-----------------------------------------|

e|-----------------------------------------|-------------------------------|
B|-----------------------------------------|-------------------------------|
G|--12--10--5--3--5--3--5fbrb--5pbr--3--5--|--5/7\5--3------------3--5--3--|
D|-----------------------------------------|------------5--3--5------------|
A|-----------------------------------------|-------------------------------|
E|-----------------------------------------|-------------------------------|

e|---------------5-----|
B|--------6--8------6--|
G|--5/7----------------|
D|---------------------|
A|---------------------|
E|---------------------|

3rd Fill
e|--13--13p10--13--13p10--13fbr---|--13--13p10--13--13p10--13fb---|
B|--------------------------------|-------------------------------|
G|--------------------------------|-------------------------------|
D|--------------------------------|-------------------------------|
A|--------------------------------|-------------------------------|
E|--------------------------------|-------------------------------|


| /  slide up
| \  slide down
| h  hammer-on
| p  pull-off
| ~  vibrato
| +  harmonic
| x  Mute note
| fb Full bend
| pbr Pre-bend release
| fbr Full bend release
===============================================================================

Intro:

Gm  C  D#  Gm  Bb  F  D#

1st Verse

 N.C.   Gm
I don't feel like I'm at home

        D#             E#
in the morning all alone

       Gm             F                   D#
trying hard to do the things I know I should

         Gm
when the night time closes in

         D#            E#
and the lonelyness begins

  Gm                   F                 D#
I believe you'd rather be here if you could

1st Solo

D#  Gm  C  D#  Gm  Bb  F  D#

2nd Verse

 N.C.   Gm
Blaze a trail back to your heart

           D#                  E#
and you'll know that from the start 

        Gm            F               D#
we have been together long enough to see

        Gm
all the hard times take their toll

        D#               E#
as they try to rob my soul

        Gm               F               D#
of the precious gift of love you give to me

Chorus

N.C.       A#         E#
There's a song in the breeze

         D#                   A#
hear it singing through the trees

      G#          Gm                F
as it blows along you will know the tune

         A#                 E#
time can heal so I've been told

        D#                     A#
if you believe it you'll grow old 

        G#            Gm                 F  
all the time we need together is coming soon

Main solo

A#  E#  D#  A#  G#  Gm  F

3rd Verse

F        Gm
We can't rely on things we know

             D#              E#
Till there's time enough to show

          Gm                F                      D#
We're the things that we've believed in all these years

        Gm
I can't see too well through tears

       D#             E#
or the darkness of my fears

        Gm             F              D#
so I'm reaching out to find a helping hand

Chorus

N.C.       A#         E#
There's a song in the breeze

         D#                   A#
hear it singing through the trees

      G#          Gm                F
as it blows along you will know the tune

         A#                 E#
time can heal so I've been told

        D#                     A#
if you believe it you'll grow old 

        G#            Gm                 F  
all the time we need together is coming soon

Outro

F Gm


            
            
Suggest correction
Creating personal tab
Creating personal tab
You can edit any tab online and save it as your Personal.

You can edit, replace or remove any tab part or add personal notes – all changes will be seen only by you.

Personal tabs can be accessed anytime from any device, even offline.
Learn more »
Give kudos to tab author, rate the tab!
1 2 3 4 5
comments
print report bad tab
guest
You may want to rate the tab now too:
select rating
Wanna post a correction for this tab? Suggest correction