Oops, an error
Loading. Please wait.

There Goes Another Love Song bass

version 1
version 1

Whole song

Interactive

by Outlaws
990 views 3 this week
1 commentread comment
1 2 3 4 5
2 more votes to show rating
add to favorites
×
Save as Personal and add changes to this tab that will be seen only by you. Learn more ›
×
You can save this tab as Personal to edit and correct it or add notes. All changes will be seen only by you. Learn more »
launch autoscroll
font size
0
reset
guitar tuner
backing track
0:00
0:00
edit
Autoscroll
slow
fast
+/-
esc
set tempo
stop
Difficulty
SONG:  THERE GOES ANOTHER LOVE SONG		ARTIST: OUTLAWS

INTRO:
G|---------------------------------------------|
D|---------------------------------------------| X4
A|------------------3-3-3-3-3-3----------------|
E |----3--3--1-1-------------------------------|

VERSE: 1
G|----------------------------------------------------------------------------------|
D|----------------------------------------------------------------------------------|
A|------------------333333------------------33333------------------3333-------------|
E |---3---3--1--1------------11----3----1------------11----3---1--------------------|

G|----------------------------------|
D|----------------------------------|
A|--------------333333--------------|
E |---3----11-----------------------|

VERSE: 2
G|-----------------------------------------------------------------------|
D|-----------------------------------------------------------------------|
A|------------------333333------------------------33333------------------|
E |---3--3--1--1--------------11----3-3----1-1------------11-------------|

CHORUS: 1
G|-----------------------------------------------------------------------------------------------|
D|-----------------------------------------------------------------------------------------------|
A|---------------333333--------------333333-------------333333--------------333333—55555555—-3~--|
E|---33----11-------------33----11--------------33—11-------------33----11-----------------------|

G|---------------------------------|
D|---------------------------------|
A|------------------333333---------|
E|----3-3----1-1-------------------|

VERSE: 3
G|-------------------------------------------------------------------------|
D|-------------------------------------------------------------------------|
A|----------------333333-------------------------333333--------------------|
E|--3--3--1--1-----------------1--1----3--3--1--1----------------1—1-------|

CHORUS: 2
G|-----------------------------------------------------------------------------------|
D|-----------------------------------------------------------------------------------|
A|---------------333333--------------333333-------------333333--------------3333333--|
E|---33----11-------------33----11--------------33—11-------------33----11-----------|

G|----------------------------------|
D|----------------------------------| x4
A|------------------333333----------|
E|----3-3----1-1--------------------|

BRIDGE: (DO, do,do,do)
G|--------------------------------------------|
D|--------------------------------------------|
A|---333333-------------333333----------------|
E|---------------33--11-----------------------|


G|---------------------------------|
D|---------------------------------| x3
A|------------------333333---------|
E|----3-3----1-1-------------------|

CHORUS: 3
G|-----------------------------------------------------------------------------------|
D|-----------------------------------------------------------------------------------|
A|---------------333333--------------333333-------------333333--------------3333333--|
E|---33----11-------------33----11--------------33—11-------------33----11-----------|

OUTRO:
G|--------------------------------------------------------------------------------------------|
D|--------------------------------------------------------------------------------------------|
A|---------------333333--------------333333-------------333333--------------333333—55555555—--|
E|---33----11-------------33----11--------------33—11-------------33----11--------------------|

            
            
Suggest correction
Creating personal tab
Creating personal tab
You can edit any tab online and save it as your Personal.

You can edit, replace or remove any tab part or add personal notes – all changes will be seen only by you.

Personal tabs can be accessed anytime from any device, even offline.
Learn more »
Give kudos to tab author, rate the tab!
1 2 3 4 5
comments
print report bad tab
1 comment total.
0 reply
duane baldwin 4,663 Apr 24, 2013 09:09 AM

This isn't even close.

guest
Wanna post a correction for this tab? Suggest correction