Oops, an error
Loading. Please wait.

Nothing To Die For bass

version 1
version 1

Whole song

Interactive

824 views 1 this week
no commentswrite comment
1 2 3 4 5
3 more votes to show rating
add to favorites
×
Save as Personal and add changes to this tab that will be seen only by you. Learn more ›
×
You can save this tab as Personal to edit and correct it or add notes. All changes will be seen only by you. Learn more »
launch autoscroll
font size
0
reset
guitar tuner
edit
Autoscroll
slow
fast
+/-
esc
set tempo
stop
Author
drop d

G||------------------|--------------------|--------------------|
D||------------------|--------------------|--------------------|
A||------------------|--------------------|--------------------|
E||------------------|--0--------------0--|--0--------------0--|


                                                                     
--------------------|--------------------------|--------------------|
--------------------|--8--9--8-----7-----6-----|--------------------|
--------------------|-----------9-----8-----7--|--------------------|
--0--------------0--|--------------------------|--0--------------0--|


                                                                    
--------------------|--------------------|-------------------------|
--------------------|--------------------|-------------------------|
--------------------|--------------------|--7-------------8--------|
--0--------------0--|--0--------------0--|---------7---------------|


                                                               
--------------------|--------------------|--------------------|
--------------------|--------------------|--------------------|
--------------------|--------------------|--------------------|
--0--------------0--|--0--------------0--|--0--------------0--|


                                                                     
--------------------------|--------------------|--------------------|
--8--9--8-----7-----6-----|--------------------|--------------------|
-----------9-----8-----7--|--------------------|--------------------|
--------------------------|--0--------------0--|--0--------------0--|


                                                              
--------------------|-------------------------|--------------|
--------------------|-------------------------|--------------|
--------------------|--7-------------8--------|--------------|
--0--------------0--|---------7---------------|--------------|


                                                              
----------------------------|---------------------|----------|
----------------------------|---------------------|----------|
--8--7--8--10--8--7---------|--8------5------7----|----------|
---------------------10--8--|---------------------|----------|


                                                      
--------------------------|--------------------------|
--------------------------|--------------------------|
--------------------------|--------------------------|
--0--0--0--0--0--0--0--0--|--0--0--0--0--0--0--0--0--|


                                                      
--------------------------|--------------------------|
--------------------------|--8--9--8-----7-----6-----|
--------------------------|-----------9-----8-----7--|
--0--0--0--0--0--0--0--0--|--------------------------|


                                                      
--------------------------|--------------------------|
--------------------------|--------------------------|
--------------------------|--------------------------|
--0--0--0--0--0--0--0--0--|--0--0--0--0--0--0--0--0--|


                                                                                
--------------------------|-------------------------|--------------------------|
--------------------------|-------------------------|--------------------------|
--------------------------|--7-------------8--------|--------------------------|
--0--0--0--0--0--0--0--0--|---------7---------------|--0--0--0--0--0--0--0--0--|


                                                      
--------------------------|--------------------------|
--------------------------|--------------------------|
--------------------------|--------------------------|
--0--0--0--0--0--0--0--0--|--0--0--0--0--0--0--0--0--|


                                                      
--------------------------|--------------------------|
--8--9--8-----7-----6-----|--------------------------|
-----------9-----8-----7--|--------------------------|
--------------------------|--0--0--0--0--0--0--0--0--|


                                                                            
--------------------------|--------------------------|---------------------|
--------------------------|--------------------------|---------------------|
--------------------------|--------------------------|--7-------------8----|
--0--0--0--0--0--0--0--0--|--0--0--0--0--0--0--0--0--|---------7-----------|


                                                                              
|-------------------|------------------|------------------|------------------|
|*------------------|------------------|------------------|------------------|
|*------------------|------------------|------------------|------------------|
|-------------------|------------------|------------------|------------------|


                                                                        
------------------|--------------|------------------|------------------|
------------------|--------------|------------------|------------------|
------------------|--------------|------------------|------------------|
------------------|--------------|------------------|------------------|


                                                                        
------------------|------------------|------------------|--------------|
------------------|------------------|------------------|--------------|
------------------|------------------|------------------|--------------|
------------------|------------------|------------------|--------------|


                                                                            
------------------|------------------|------------------|------------------|
------------------|------------------|------------------|------------------|
------------------|------------------|------------------|------------------|
------------------|------------------|------------------|------------------|


                                                              
----------|------------------|------------|------------------|
----------|------------------|------------|------------------|
----------|------------------|------------|------------------|
----------|------------------|------------|------------------|


                                                                            
------------------|------------------|------------------|------------------|
------------------|------------------|------------------|------------------|
------------------|------------------|------------------|------------------|
------------------|------------------|------------------|------------------|


                                                                              
------------------|------------------|------------------|-------------------||
------------------|------------------|------------------|------------------*||
------------------|------------------|------------------|------------------*||
------------------|------------------|------------------|-------------------||


                                                                            
------------------|------------------|------------------|------------------|
------------------|------------------|------------------|------------------|
------------------|------------------|------------------|------------------|
------------------|------------------|------------------|------------------|


                                                                            
------------------|------------------|------------------|------------------|
------------------|------------------|------------------|------------------|
------------------|------------------|------------------|------------------|
------------------|------------------|------------------|------------------|


                                                                            
------------------|------------------|------------------|------------------|
------------------|------------------|------------------|------------------|
------------------|------------------|------------------|------------------|
------------------|------------------|------------------|------------------|


                                                                            
------------------|------------------|------------------|------------------|
------------------|------------------|------------------|------------------|
------------------|------------------|------------------|------------------|
------------------|------------------|------------------|------------------|


                                                                    
------------------|------------------|--------------|--------------|
------------------|------------------|--------------|--------------|
------------------|------------------|--------------|--------------|
------------------|------------------|--------------|--------------|


                                                                        
--------------|------------------|------------------|------------------|
--------------|------------------|------------------|------------------|
--------------|------------------|------------------|------------------|
--------------|------------------|------------------|------------------|


                                                             
------------------||-------------------|-------------------||
------------------||*------------------|------------------*||
------------------||*------------------|------------------*||
------------------||-------------------|-------------------||


                                                                               
-------------------|-------------------||------------------|------------------|
*------------------|------------------*||------------------|------------------|
*------------------|------------------*||------------------|------------------|
-------------------|-------------------||------------------|------------------|


                                                                            
------------------|------------------|------------------|------------------|
------------------|------------------|------------------|------------------|
------------------|------------------|------------------|------------------|
------------------|------------------|------------------|------------------|


                                                                     
------------------|------------------------|------------------------|
------------------|------------------------|------------------------|
------------------|--------x--3----x--5----|--------x--2----x--4----|
------------------|--3h-5------------------|--2h-4------------------|


                                                                                
------------------------|-------------------|---------------|------------------|
------------------------|----------------6/-|--7------------|------------------|
--------x--1----x--3----|----------------6/-|--7------------|------------------|
--1h-3------------------|-------------------|---------------|------------------|
	

            
            
Suggest correction
Creating personal tab
Creating personal tab
You can edit any tab online and save it as your Personal.

You can edit, replace or remove any tab part or add personal notes – all changes will be seen only by you.

Personal tabs can be accessed anytime from any device, even offline.
Learn more »
Give kudos to tab author, rate the tab!
1 2 3 4 5
comments
print report bad tab
guest
You may want to rate the tab now too:
select rating
Wanna post a correction for this tab? Suggest correction