Oops, an error
Loading. Please wait.

Skullkrusher bass

1,705 views 1 this week
no commentswrite comment
1 2 3 4 5
2 more votes to show rating
add to favorites
×
Save as Personal and add changes to this tab that will be seen only by you. Learn more ›
×
You can save this tab as Personal to edit and correct it or add notes. All changes will be seen only by you. Learn more »
launch autoscroll
font size
0
reset
guitar tuner
edit
Autoscroll
slow
fast
+/-
esc
set tempo
stop
Artist: OverKill
Song:   Skullcrusher
Album:  The Years Of Decay

Tabbed by JOSH/SCALLYWAG

Tuning: CFBE (2 steps down)OH MY!!!


Intro:

E|----------------|----------------|----------------|----------------|
B|----------------|----------------|----------------|----------------|
F|----------------|----------------|----------------|----------------|
C|----------------|----------------|----------------|----------------|

|----------------|----------------|------------9---|----------------||
|----------------|----------------|----------------|8-------7-------||
|----------------|----------------|--------7-------|----------------||
|----------------|----------------|----------------|----------------||
Riff A:

|----------------|----------------|----------------|----------------|
|----------------|----------------|----------------|----------------|
|--------7-------|----------------|--------7-------|----------------|
|0-----------7---|5-------3/5-----|0-----------7---|5-------3/5-----|

|----------------|----------------|------------9---|----------------||
|----------------|----------------|----------------|8-------7-------||
|--------7-------|----------------|--------7-------|----------------||
|0-----------7---|5---6---3-5-3---|0---------------|----------------||

Riff B (Play twice):

|----------------|----------------|----------------|----------------||
|----------------|----------------|----------------|----------------||
|----------------|----------------|----------------|----------------||
|0---0-0-3-------|0---5---5/6-----|0---0-0-3-------|3-----2-----1---||

Riff C (Play twice):

|----------------|----------------|----------------|----------------|
|----------------|----------------|----------------|----------------|
|----------------|----------------|----------------|----------------|
|0---0-0-3-------|0---0-0-6---5---|0---0-0-3-----0-|6-5---0-5---3---|

|----------------|----------------|----------------|----------------|----------------||
|----------------|----------------|----------------|----------------|----------------||
|----------------|----------------|----------------|----------------|----------------||
|0---0-0-3-------|0---0-0-6---5---|0---0-0-3-----0-|8-7-0-7-6-0-6-5-|0-6-5-0-5-6-3~--||

 (1st verse)
  Standing at the crossroads
  Which way you gonna go
  And what you gonna do when it comes
  Bargaining with gasoline
  Take a ride on this machine
  Gonna get me some
  When it comes
  Just how far you gonna go
  Somebody should let you know
  Once you're in you ain't getting out
  Put a side your foolish pride
  So you take just one more ride
  I don't think you know what it's about
  Here it comes

Then the sequence is repeated; play Riff B twice and play Riff C twice

 (2nd verse)
  Riding on a living hell
  Got another soul to sell
  Right is right and wrong is wrong
  Life's a dream
  On this machine
  It lasts just about as long
  So you think you know it all
  And when you ride you never fall
  I got some news for you
  Entice you with a wicked smile
  Take a ride for a while
  Seems that the news is true
  Yes it's true


Riff D (Play twice):

|----------------|----------------|----------------|----------------||
|----------------|----------------|----------------|----------------||
|----------------|----------------|----------------|----------------||
|0---0---1---0---|0---0---2---0---|0---0---1---0---|0---0---2-1-0-2-||

 (Chorus)
  Oh take me away
  On the ride of your life
  Oh put me away
  Deathpusher
  Oh take me away
  Last time of my life
  Skullcrusher



Riff E (Play twice):

|----------------|----------------|----------------|----------------||
|----------------|----------------|----------------|----------------||
|----------------|----------------|----------------|----------------||
|0-------6-------|5---3-------0---|5---3---0---0---|----2-3-1~------||

(Chorus)
  Oh take me away
  On the ride of your life
  Oh put me away
  Deathpusher
  Oh take me away
  Last time of my life
  Skullcrusher

Riff F (Play twice):

|----------------|--------------------|----------------|--------------|
|----------------|--------------------|----------------|--------------|
|----7-------7---|----7---------------|----7-------7---|---7---9-10-8~|
|0-0-----0-0-----|0-0-----0-0-3-5-3~--|0-0-----0-0-----|0-0-----------|

And then the bridge starts

Riff G (Play twice):

|----------------|----------------|----------------|----------------||
|----------------|----------------|----------------|----------------||
|--------7---5-7-|----------------|--------7---5-7-|--------9-10-8~-||
|0-0-0-0---------|--0-0-0-3-5-3~--|0-0-0-0---------|--0-0-0---------||

 (Bridge)
  Ten thousand nightmares
  Ten thousand years
  Ten thousand martyrs crying
  Ten million tears

Fill 1 (Play twice):

|----------------|--------------------|----------------|-------------|
|----------------|--------------------|----------------|-------------|
|----------------|--------------------|----------------|------9-10-8~|
|0---0---0---0---|0---0---0---3-5-3~--|0---0---0---0---|0---0---0----|


 (Bridge)
  All the thinking never done
  All the murder, all the fun
  Wash the blood from your hands
  Bury your secrets in the sand
  And forget

  Your mouth went dry
  Shortness on breath
  Symptoms of fear
  Symptoms of Death

As soon as you enter the measure in which Bobby screams "Death", it goes like 
this (it's 6/4 measure!)

Fill 2:

|------------------------||
|------------------------||
|------------------------||
|0-0-2-3-1~--0-0-2-3-1~--||


Fill 3 (Play 4 times):

|----------------|----------------|----------------|----------------|
|----------------|----------------|----------------|----------------|
|----------------|----------------|----------------|----------------|
|0---------------|----------------|--|6-----5-----5---|--3---5-3-1--|

Riff H (Play 8 times):

|----------------|----------------||
|----------------|----------------||
|--------7-----5-|--7-------------||
|0-0-0-0---0-0---|----0-0-3-5-3---||

Riff I (Play 4 times):

|----------------|----------------||
|----------------|----------------||
|----------------|----------------||
|0-0-1-0-0-0-2-0-|0-0-1-0-0-0-2102||

 (3rd verse)
  Tracks go on for miles
  Through the agony and smiles
  Laying there in pieces on the ground
  What the hell, you take a chance
  Crusher call, make your stance
  When you're dead you never make a sound
  Racing with the Devil
  Engine's slowing down
  Fifty years too early
  And you're laying underground...
  You're crushed!

Then repeat Riff B twice again and until the song finishes, repeat this new 
riff until the song is over:

Riff J (Repeat and fade):

|----------------|----------------|----------------|----------------||
|----------------|----------------|----------------|----------------||
|----------------|----------------|----------------|----------------||
|0---0-0-3-----0-|3-----2-----1---|0-0-0-0-3-----0-|3-----2-----1---||

 (Chorus)
  Oh take me away
  On the ride of my life
  Oh put me away
  Deathpusher
  Oh take me away
  Last time of my life
  Oh take me away
  Skullcrusher
  Oh take me away
  On the ride of my life
  Oh put me away
  Deathpusher
  Oh take me away
  Oh take me away
  Oh take me away
  Skullcrusher

            
            
Suggest correction
Creating personal tab
Creating personal tab
You can edit any tab online and save it as your Personal.

You can edit, replace or remove any tab part or add personal notes – all changes will be seen only by you.

Personal tabs can be accessed anytime from any device, even offline.
Learn more »
Give kudos to tab author, rate the tab!
1 2 3 4 5
comments
print report bad tab
guest
Wanna post a correction for this tab? Suggest correction