Oops, an error
Loading. Please wait.

Thanx For Nothin tab

version 2
version 2

Whole song

Interactive

1,676 views 1 this week
no commentswrite comment
1 2 3 4 5
2 more votes to show rating
add to favorites
×
Save as Personal and add changes to this tab that will be seen only by you. Learn more ›
×
You can save this tab as Personal to edit and correct it or add notes. All changes will be seen only by you. Learn more »
launch autoscroll
font size
0
reset
how to read this tab
guitar tuner
edit
Autoscroll
slow
fast
+/-
esc
set tempo
stop
Author
-------------------------------------------------------------------------------
			     Thanx for Nothin - OVERKILL
-------------------------------------------------------------------------------

Tabbed by: Matt Arndt
Email: contact@miseryremains.com

Tuning: D


INTRO/VERSE (8x - bass only on last measure of 4th time)
D||--------------------|-------------------|-------------------|------------------||
A||--------------------|-------------------|-------------------|------------------||
F||*-------------------|-------------------|-------------------|-----------------*||
C||*-2-----------------|-2-----------------|-2-----------------|-2---------------*||
G||--2---------0h1p0---|-2---------0h1p0---|-2---------0h1p0---|-2----------------||
D||--0---2-3-0-------3-|-0---2-3-0-------3-|-0---2-3-0-------3-|-0---3-2-0-5-3-2--||
         * * *       *       * * *       *       * * *       *       * * * * * *

CHORUSa
||-----------------|--------------|--------------|--------------|
||-----------------|--------------|--------------|--------------|
||-----------------|--------------|--------------|--------------|
||-2-------------4-|------------5-|------------7-|------5-------|
||-2-------------4-|------------5-|------------7-|------5-------|
||-0---0-0-0-0-0-2-|--2-2-2-2-2-3-|--3-3-3-3-3-5-|--5-5-3---3-3-|
       * * * * *      * * * * *      * * * * *      * *     * *
"If you could only see..."


|-----------------|--------------|--------------|--------------||
|-----------------|--------------|--------------|--------------||
|---------------7-|--------------|--------------|--------------||
|-2-------------7-|------------7-|------------8-|------7-------||
|-2-------------5-|--5-5-5-5-5-7-|------------8-|------7-------||
|-0---0-0-0-0-0---|------------5-|--5-5-5-5-5-6-|--6-6-5---5-5-||
      * * * * *      * * * * *      * * * * *      * *     * *
"If you could only be..."


CHORUSb
|-----------------|--------------|--------------|--------------|
|-----------------|--------------|--------------|--------------|
|-----------------|--------------|--------------|--------------|
|-2-------------4-|------------5-|------------7-|------5-------|
|-2-------------4-|------------5-|------------7-|------5-------|
|-0---0-0-0-0-0-2-|--2-2-2-2-2-3-|--3-3-3-3-3-5-|--5-5-3---3-3-|
      * * * * *      * * * * *      * * * * *      * *     * *

|-----------------|--------------|--------------|-----------------|----------------|
|-----------------|--------------|--------------|-----------------|----------------|
|---------------7-|--------------|--------------|-----------------|----------------|
|-2-------------7-|------------7-|--------------|-------7---------|----------------|
|-2-------------5-|--5-5-5-5-5-7-|--------------|/8---8-7---------|----------------|
|-0---0-0-0-0-0---|------------5-|--5-5-5-5-5-5-|/6---6-5---5-5-5-|5-5-5-5-5-5-5-5-|
      * * * * *      * * * * *      * * * * * *             * * *  * * * * * * * * 
"When it's over cry for sympathy...              Don't ask why     Thanx for nothin'"


|-----------------|-----------------|-----------------|---------------|-----------------||
|-----------------|-----------------|-----------------|---------------|-----------------||
|-----------------|-----------------|-----------------|---------------|-----------------||
|-------7---------|-----------------|-------7---------|-------7-------|-8-7-8-7-8-7-5-3-||
|/8---8-7---------|-----------------|/8---8-7---------|/8---8-7-------|-8-7-8-7-8-7-5-3-||
|/6---6-5---5-5-5-|-5-5-5-5-5-5-5-5-|/6---6-5---5-5-5-|/6---6-5---5-5-|-6-5-6-5-6-5-3-1-||
            * * *   * * * * * * * *             * * *             * *
									"Next time..."

VERSE 6x (2x solo, 4x vocals)
CHORUSa
CHORUSb

BASS SOLO (HOOK RIFF)
||-----------------|-----------------|-----------------|-------------------|
||-----------------|-----------------|-----------------|-------------------|
||-----------------|-----------------|-----------------|---------------3h5-|
||-0-0-0-0-3-------|-0---0-0-0-3---3-|-0-0-0-0-3-------|-0---0-0-0-3h5-----|

|-----------------|-----------------|------------------------------||
|-----------------|-----------------|-----5h7-5-7---/9-7---5-7p5---||
|-----------------|-----------------|-5h7------------------------7-||
|-0-0-0-0-3-------|-0---0-0-0-3---3-|------------------------------||
                                        (Guitars fade in...)

HOOK                                3x    4th time
||------------------|------------------||-----------------|-------------------||
||------------------|------------------||-----------------|-------------------||
||*-----------------|-----------------*||-----------------|-------------------||
||*---------5-------|-2---------5---5-*||---------5-------|-2---------5-------||
||----------5-------|-2---------5---5--||---------5-------|-2---------5---8\7-||
||--0-0-0-0-3-------|-0---0-0-0-3---3--||-0-0-0-0-3-------|-0---0-0-0-3-0-6\5-||
    * * * *               * * *           * * * *               * * *   *
Repeat this entire part once-------------------------------------------------->

|---------------------||------------------|------------------||
|---------------------||------------------|------------------||
|---------------------||*-----------------|-----------------*||
|-7-----------5---4-3-||*---------5-------|-2---------5---5-*||
|-7-----------5---4-3-||----------5-------|-2---------5---5--||
|-5-------0-0-3---2-1-||--0-0-0-0-3-------|-0---0-0-0-3---3--||
          * *             * * * *               * * *
"Think..."


|---------------------|-----------------|-----------------|-----------------||
|---------------------|-----------------|-----------------|-----------------||
|---------------------|-----------------|-----------------|-----------------||
|-7-----------5---4-3-|---------5-------|-2---------5---5-|---------------5-||
|-7-----------5---4-3-|---------5-------|-2---------5---5-|---------8\7---5-||
|-5-------0-0-3---2-1-|-0-0-0-0-3-------|-0---0-0-0-3---3-|-0-0-0-0-6\5-0-3-||
          * *           * * * *               * * *         * * * *     *
"Think..."


Repeat HOOK

GUITAR LEAD (OVER VERSE RIFF 4x)
D||--------------------|-------------------|-------------------|------------------||
A||--------------------|-------------------|-------------------|------------------||
F||*-------------------|-------------------|-------------------|-----------------*||
C||*-2-----------------|-2-----------------|-2-----------------|-2---------------*||
G||--2---------0h1p0---|-2---------0h1p0---|-2---------0h1p0---|-2----------------||
D||--0---2-3-0-------3-|-0---2-3-0-------3-|-0---2-3-0-------3-|-0---3-2-0-5-3-2--||
         * * *       *       * * *       *       * * *       *       * * * * * *

|---------------|---------------|-------------------|-------------------|---------------|
|---------------|---------------|-------------------|-------------------|---------------|
|---------------|---------------|-------------------|-------------------|---------------|
|-2-222-2-2-2-2-|-2-222-2-2-2-2-|-2-----------------|-2-----------------|-2-222-2-2-2-2-|
|-0-000-0-0-0-0-|-0-000-0-0-0-0-|-2---------0h1p0---|-2---------0h1p0---|-0-000-0-0-0-0-|
|---------------|---------------|-0---2-3-0-------3-|-0---2-3-0-------3-|---------------|
    *** * * * *     *** * * * *       * * *       *       * * *       *     *** * * * *


         (lead ends)    *Chord stops*
|-----------------|-----------------------------------------------------|-------------|
|-----------------|-----------------------------------------------------|-------------|
|-----------------|-----------------------------------------------------|-------------|
|-2-222-2-2-2-2-2-|-2---2---2---2---2---2---2---2---2---2---2---2---2---|-------------|
|-0-000-0-0-0-0-0-|-2---2---2---2---2---2---2---2---2---2---2---2---2---|-------------|
|-----------------|-0---0---0---0---0---0---0---0---0---0---0---0---0---|-3-2-0-5-3-2-|
    *** * * * * *                                                         * * * * * *


|-------------------|-------------------|-------------------|-----------------||
|-------------------|-------------------|-------------------|-----------------||
|-------------------|-------------------|-------------------|-----------------||
|-2-----------------|-2-----------------|-2-----------------|-2---------------||
|-2---------0h1p0---|-2---------0h1p0---|-2---------0h1p0---|-2---------------||
|-0---2-3-0-------3-|-0---2-3-0-------3-|-0---2-3-0-------3-|-0---3-2-0-5-3-2-||
      * * *       *       * * *       *       * * *       *       * * * * * *

CHORUSa 3x
CHORUSb

|-----------------|--------------|--------------||
|-----------------|--------------|--------------||
|-----------------|--------------|-9-9\---------||
|-2---2---2---2---|-5------------|-9-9\---------||
|-2---2---2---2---|-5------------|-7-7\---------||
|-0---0---0---0---|-3------------|-0-0----------||


| /  slide up
| \  slide down
| h  hammer-on
| p  pull-off
| ~  vibrato
| +  harmonic
| x  Mute note
| *  Palm mute
===============================================================================

            
            
Suggest correction
Creating personal tab
Creating personal tab
You can edit any tab online and save it as your Personal.

You can edit, replace or remove any tab part or add personal notes – all changes will be seen only by you.

Personal tabs can be accessed anytime from any device, even offline.
Learn more »
Give kudos to tab author, rate the tab!
1 2 3 4 5
comments
print report bad tab
guest
You may want to rate the tab now too:
select rating
Wanna post a correction for this tab? Suggest correction