Oops, an error
Loading. Please wait.

Stompbox intro guitar pro

448 views 1 this week
5 commentsread comments
1 2 3 4 5
3 more votes to show rating
add to favorites
guitar tuner
Autoscroll
slow
fast
+/-
esc
set tempo
stop
"Stompbox"
demo version
Play now

or get full version for Free

×
Get full version now!
Learn and play this song
in Tab Pro
Try for free

or get $10 off Welcome Bonus

Get welcome bonus
Get access to Tab Pro version of “Stompbox”!
Tab Pro is a premium guitar tab service, available on PC, Mac, iOS and Android
TRY FOR FREE
To download “Stompbox” Guitar Pro tab click button below
Please note that you must have Guitar Pro software installed on your
computer in order to view this file.
Suggest correction
Give kudos to tab author, rate the tab!
1 2 3 4 5
comments
report bad tab
5 comments total. Showing first comments.
0 reply
Sebigboss 16 May 08, 2006 12:55 AM

Most of the credits go to mouldysandwich, because i just corrected/transcribed his original work. Please check out his work!

0 reply
mouldysandwich 324 Oct 21, 2006 11:47 AM

you didnt change anything... you just wrote out the first bit of my tab except with out the muted bit. :S quite pointless

in case there was any confusion of what i meant, it isnt palm muted... its just quieter than the rest

0 reply
Sebigboss 16 Oct 22, 2006 10:58 AM

your version:
|-----------------------------------------|
|-----------------------------------------|
|-----------------------------------------| x4 muted
|--9--9--8--8--6---4--6---6--4--6---4--6--|
|--9--9--8--8--6---4--6---6--4--6---4--6--|
|--9--9--8--8--6---4--6---6--4--6---4--6--|


my version:
|---------------------------------------------|
|---------------------------------------------|
|---------------------------------------------| x4 muted
|--9--9--8--8--6--6--4--6---6--4--6--6--4--8--|
|--9--9--8--8--6--6--4--6---6--4--6--6--4--8--|
|--9--9--8--8--6--6--4--6---6--4--6--6--4--8--|


See the difference ?

guest
You may want to rate the tab now too:
select rating