Oops, an error
Loading. Please wait.

Moth Rock tab

by Ovlov
337 views 3 this week
no commentswrite comment
1 2 3 4 5
2 more votes to show rating
add to favorites
×
Save as Personal and add changes to this tab that will be seen only by you. Learn more ›
×
You can save this tab as Personal to edit and correct it or add notes. All changes will be seen only by you. Learn more »
launch autoscroll
font size
0
reset
how to read this tab
guitar tuner
edit
Autoscroll
slow
fast
+/-
esc
set tempo
stop
[Intro]

e|---------------------------------------------------------------------------|
B|------2------------2-------------------------------------------------------|
G|--------2------4-----4---2-------------------------------------------------|
D|----------4------4-----4---------------------------------------------------|
A|------------2--------------------------------------------------------------|  3x
D|--0------------------------------------------------------------------------|

e|---------------------------------------------------------------------------|
B|-----3-2-3------2-----2---2------------------------------------------------|
G|------------------2-----2---2----------------------------------------------|
D|------------4-------4------------------------------------------------------|
A|---------------------------------------------------------------------------|  1x
D|--0------------------------------------------------------------------------|


[Verse]

e|---------------------------------------------------------------------------|
B|------2------------2-------------------------------------------------------|
G|--------2------4-----4---2-------------------------------------------------|
D|----------4------4-----4---------------------------------------------------|
A|------------2--------------------------------------------------------------|  3x
D|--0------------------------------------------------------------------------|

you were alone just like a 
moth flown away; 
feel the whisper in my 

e|---------------------------------------------------------------------------|
B|-----3-2-3------2-----2---2------------------------------------------------|
G|------------------2-----2---2----------------------------------------------|
D|------------4-------4------------------------------------------------------|
A|---------------------------------------------------------------------------|  1x
D|--0------------------------------------------------------------------------|

head

e|---------------------------------------------------------------------------|
B|------2------------2-------------------------------------------------------|
G|--------2------4-----4---2-------------------------------------------------|
D|----------4------4-----4---------------------------------------------------|
A|------------2--------------------------------------------------------------|  3x
D|--0------------------------------------------------------------------------|

feel your tone right through the 
rock all the way; 
free your simple minded

e|---------------------------------------------------------------------------|
B|-----3-2-3------2-----2---2------------------------------------------------|
G|------------------2-----2---2----------------------------------------------|
D|------------4-------4------------------------------------------------------|
A|---------------------------------------------------------------------------|  1x
D|--0------------------------------------------------------------------------|

head


[Chorus]

          B      A
for you alone, tonight 
G                F#      E                   D                 
wait for a while to over see those for miles through 
G  F#            B      A
wait for you to show tonight 
G                F#        E
wait for a while for older seat scraped the tile floor 


[Verse]

e|---------------------------------------------------------------------------|
B|------2------------2-------------------------------------------------------|
G|--------2------4-----4---2-------------------------------------------------|
D|----------4------4-----4---------------------------------------------------|
A|------------2--------------------------------------------------------------|  3x
D|--0------------------------------------------------------------------------|

e|---------------------------------------------------------------------------|
B|-----3-2-3------2-----2---2------------------------------------------------|
G|------------------2-----2---2----------------------------------------------|
D|------------4-------4------------------------------------------------------|
A|---------------------------------------------------------------------------|  1x
D|--0------------------------------------------------------------------------|

e|---------------------------------------------------------------------------|
B|------2------------2-------------------------------------------------------|
G|--------2------4-----4---2-------------------------------------------------|
D|----------4------4-----4---------------------------------------------------|
A|------------2--------------------------------------------------------------|  3x
D|--0------------------------------------------------------------------------|

to your home, you carry 
rocks peel the 
mold and fear the mist brings on our 

e|---------------------------------------------------------------------------|
B|-----3-2-3------2-----2---2------------------------------------------------|
G|------------------2-----2---2----------------------------------------------|
D|------------4-------4------------------------------------------------------|
A|---------------------------------------------------------------------------|  1x
D|--0------------------------------------------------------------------------|

head

e|---------------------------------------------------------------------------|
B|------2------------2-------------------------------------------------------|
G|--------2------4-----4---2-------------------------------------------------|
D|----------4------4-----4---------------------------------------------------|
A|------------2--------------------------------------------------------------|  3x
D|--0------------------------------------------------------------------------|

hear you say another 
name all the 
pain building up inside my

e|---------------------------------------------------------------------------|
B|-----3-2-3------2-----2---2------------------------------------------------|
G|------------------2-----2---2----------------------------------------------|
D|------------4-------4------------------------------------------------------|
A|---------------------------------------------------------------------------|  1x
D|--0------------------------------------------------------------------------|

head


[Chorus]

             B        A
and you were wrong to right 
G                F#              E                        D
wait for a while more and you'll see space through my old door 
G D            B       A
hey, you do it for the night 
G                F#                  E
wait for a while more and you'll see haste; a mile tour 


[Bridge]

F#   G
hold on 
F#          B    A
try in your head again 
F#   G
feel more 
F#              B     A
fine and you're there again 
F#  G
see for 
F#             B    A
time with your pair again 
F#   G   B    A  G
feel for you

D G 2x

e|---------------------------------------------------------------------------|
B|---------------------------------------------------------------------------|
G|------------4--6---6-6-6-6-6-4-----------------4--6-9-6--9-9-9-9-9-9-9-9---|
D|--4--4--7-----------------------7-----4--4--7------------------------------| 
A|---------------------------------------------------------------------------| 1x
D|---------------------------------------------------------------------------|

D G 2x

e|---------------------------------------------------------------------------|
B|---------------------------------------------------------------------------|
G|------------4--6---6-6-6-6-6-4-----------------4--6-9-6--9-9-9-9-9-9-9-9---|
D|--4--4--7-----------------------7-----4--4--7------------------------------| 
A|---------------------------------------------------------------------------| 1x
D|---------------------------------------------------------------------------|

G                F#       E                  D                 
wait for a while for over see those in aisle four 
G               F#              E                  D
wait for a mile tour and you'll see wild in my old door 
G                F#               E                 D                 
Take for a tide shore and there's water beneath the floor
G      F#                 E          D                
wait for a while to I can change for me


[Solo/Outro]

e|---------------------------------------------------------------------------|
B|------2------------2-------------------------------------------------------|
G|--------2------4-----4---2-------------------------------------------------|
D|----------4------4-----4---------------------------------------------------|
A|------------2--------------------------------------------------------------|  3x
D|--0------------------------------------------------------------------------|

e|---------------------------------------------------------------------------|
B|-----3-2-3------2-----2---2------------------------------------------------|
G|------------------2-----2---2----------------------------------------------|
D|------------4-------4------------------------------------------------------|
A|---------------------------------------------------------------------------|  1x
D|--0------------------------------------------------------------------------|

e|---------------------------------------------------------------------------|
B|------2------------2-------------------------------------------------------|
G|--------2------4-----4---2-------------------------------------------------|
D|----------4------4-----4---------------------------------------------------|
A|------------2--------------------------------------------------------------|  3x
D|--0------------------------------------------------------------------------|

e|---------------------------------------------------------------------------|
B|-----3-2-3------2-----2---2------------------------------------------------|
G|------------------2-----2---2----------------------------------------------|
D|------------4-------4------------------------------------------------------|
A|---------------------------------------------------------------------------|  1x
D|--0------------------------------------------------------------------------|

e|---------------------------------------------------------------------------|
B|------2------------2-------------------------------------------------------|
G|--------2------4-----4---2-------------------------------------------------|
D|----------4------4-----4---------------------------------------------------|
A|------------2--------------------------------------------------------------|  3x
D|--0------------------------------------------------------------------------|

e|---------------------------------------------------------------------------|
B|-----3-2-3------2-----2---2------------------------------------------------|
G|------------------2-----2---2----------------------------------------------|
D|------------4-------4------------------------------------------------------|
A|---------------------------------------------------------------------------|  1x
D|--0------------------------------------------------------------------------|

e|---------------------------------------------------------------------------|
B|------2------------2-------------------------------------------------------|
G|--------2------4-----4---2-------------------------------------------------|
D|----------4------4-----4---------------------------------------------------|
A|------------2--------------------------------------------------------------|  3x
D|--0------------------------------------------------------------------------|

e|---------------------------------------------------------------------------|
B|-----3-2-3------2-----2---2------------------------------------------------|
G|------------------2-----2---2----------------------------------------------|
D|------------4-------4------------------------------------------------------|
A|---------------------------------------------------------------------------|  1x
D|--0------------------------------------------------------------------------|

e|---------------------------------------------------------------------------|
B|------2------------2-------------------------------------------------------|
G|--------2------4-----4---2-------------------------------------------------|
D|----------4------4-----4---------------------------------------------------|
A|------------2--------------------------------------------------------------|  3x
D|--0------------------------------------------------------------------------|

e|---------------------------------------------------------------------------|
B|-----3-2-3------2----------------------------------------------------------|
G|------------------2--------------------------------------------------------|
D|------------4-------4------------------------------------------------------|
A|---------------------------------------------------------------------------|  1x
D|--0------------------------------------------------------------------------|

            
            
Suggest correction
Creating personal tab
Creating personal tab
You can edit any tab online and save it as your Personal.

You can edit, replace or remove any tab part or add personal notes – all changes will be seen only by you.

Personal tabs can be accessed anytime from any device, even offline.
Learn more »
Give kudos to tab author, rate the tab!
1 2 3 4 5
comments
print report bad tab
guest
You may want to rate the tab now too:
select rating
Wanna post a correction for this tab? Suggest correction