Oops, an error
Loading. Please wait.

Pietro Crespi tab

version 1
version 1

Whole song

Interactive

by Owen
6,126 views 6 this week
1 commentread comment
1 2 3 4 5
3 more votes to show rating
add to favorites
×
Save as Personal and add changes to this tab that will be seen only by you. Learn more ›
×
You can save this tab as Personal to edit and correct it or add notes. All changes will be seen only by you. Learn more »
launch autoscroll
font size
0
reset
how to read this tab
guitar tuner
edit
Autoscroll
slow
fast
+/-
esc
set tempo
stop
Owen
Pietro Crespi

this is an unreleased owen song that i transposed into standard tuning (he does it in
 i'm pretty sure it's all correct.  it's an amazing song, enjoy.

(capo 1)


(intro/verse)
he plays this through twice before he starts singing.  it goes, riff 1, then riff 2,
1, riff 2.  after that the vocals start and i think it's the same as the intro.

(riff 1)
e------------------7---------------------------------0--------------------------------|
B------0--5--7--9-----9--p7--5--p4--5--------0-------0------------2-------------------|
G-----------------------------------------2----------2---------2----------------------|
D--------------------------------------6--------2----2--2--h4--------6--p4--p2--1--2--|
A----------------------------------------------------2--------------------------------|
E---0---------------------------------------------------------------------------------|


(riff 2)
e------------------7---------------------------------0-------------------------|
B------0--5--7--9-----9--p7--5--p4--5--------0-------0-------------------------|
G-----------------------------------------2----------2------------2------------|
D--------------------------------------6--------2----2---------2---------------|
A----------------------------------------------------2--2--h4---------------3--|
E---0----------------------------------------------------------------4--h5-----|

(chorus)
strum.
e---2----4-----------5---7------------|
B---2----4--0--4--5--5---7--0--4--5---|
G---2----4-----------6---8------------|
D---4----5-----------7---9------------|
A---4----5-----------7---9------------|
E---2----4-----------5---7------------|


the second verse is the same as the first one except it has the lead over it.  i haven't
out the lead so i'll post that when i pick it out.  third verse is also the same.

(end on)
e-------------------------|
B-------------------------|
G------------1------------|
D-------------------------|
A---------3---------------|
E---4--5--------0---------|

            
            
Suggest correction
Creating personal tab
Creating personal tab
You can edit any tab online and save it as your Personal.

You can edit, replace or remove any tab part or add personal notes – all changes will be seen only by you.

Personal tabs can be accessed anytime from any device, even offline.
Learn more »
Give kudos to tab author, rate the tab!
1 2 3 4 5
comments
print report bad tab
1 comment total.
0 reply
Electric_Blonde 10 Nov 07, 2007 03:30 PM

Is this supposed to be a different song than "sad waltzes of pietro crespin"?

guest
You may want to rate the tab now too:
select rating
Wanna post a correction for this tab? Suggest correction