Oops, an error
Loading. Please wait.

Saturday Night bass

version 2
version 2

Whole song

804 views 1 this week
no commentswrite comment
1 2 3 4 5
2 more votes to show rating
add to favorites
×
Save as Personal and add changes to this tab that will be seen only by you. Learn more ›
×
You can save this tab as Personal to edit and correct it or add notes. All changes will be seen only by you. Learn more »
launch autoscroll
font size
0
reset
guitar tuner
edit
Autoscroll
slow
fast
+/-
esc
set tempo
stop
Aritst: Ozomatli
Song: Saturday Night
Album: Street Signs (2004)

This song has a sweet bass line. I'm fairly certain this is at least 98% correct. I 
do any of that shortcut crap in my tabs
("play this riff X3 then this x2 and the chorus is this..."). I tried to make this as 
as possible. It also follows the song
beginning to end. Hope it helps!


G|----------------------------------------------------------------------------|
D|----------------------------------------------------------------------------|
A|----------------------------------------------------------------------------|
E|---3-2---2-3-5-3-2------3-2---2-3-5-3-2---0-0---3-2---2-3-5-3-2---3-2---9---|

G|----------------------------------------------------------------------------|
D|----------------------------------------------------------------------------|
A|----------------------------------------------------------------------------|
E|---3-2---2-3-5-3-2------3-2---2-3-5-3-2---0-0---3-2---2-3-5-3-2---3-2---9*--|

*I'm aware that this last note isn't played, but instead a variant of a previous riff. 
sounds good.

G|----------------------------------------------------------------------------|
D|----------------------------------------------------------------------------|
A|-------------2-4--5-4--4-2----------------------2-4--5-4--4-2---------------|
E|---2--2-4-5-----------------5-4-2-----2--2-4-5-------------------5-4-2------|

G|------------------------------------------------------------------------------------------|
D|------------------------------------------------------------------------------------------|
A|---2--2-2---------------------2---2-2----------------------2---2-2--------------------2---|
E|------------2-2-3---3-3-2-2-------------2-2-0---0-0--2-2-------------2-2-3--3-3-2-2-------|

G|----------------------------------------------------------------------------|
D|----------------------------------------------------------------------------|
A|----------------------------------------------------------------------------|
E|---3-2---2-3-5-3-2------3-2---2-3-5-3-2---0-0---3-2---2-3-5-3-2---3-2---9---|

G|----------------------------------------------------------------------------|
D|----------------------------------------------------------------------------|
A|-------------2-4--5-4--4-2----------------------2-4--5-4--4-2---------------|
E|---2--2-4-5-----------------5-4-2-----2--2-4-5-------------------5-4-2------|

G|------------------------------------------------------------------------------------------|
D|------------------------------------------------------------------------------------------|
A|---2--2-2---------------------2---2-2----------------------2---2-2--------------------2---|
E|------------2-2-3---3-3-2-2-------------2-2-0---0-0--2-2-------------2-2-3--3-3-2-2-------|

G|----------------------------------------------------------------------------|
D|----------------------------------------------------------------------------|
A|----------------------------------------------------------------------------|
E|---3-2---2-3-5-3-2------3-2---2-3-5-3-2---0-0---3-2---2-3-5-3-2---3-2---9---|

G|---------------------------------------------------------------18-----------|
D|----------------------------------------------------------------------------|
A|--4--4-4---7-5-4-------4-4---7-5-4-------4-4---7-5-4---4/16-16--------------|
E|----------------------------------------------------------------------------|

G|---------------------------------------------------------------18-----------|
D|----------------------------------------------------------------------------|
A|--4--4-4---7-5-4-------4-4---7-5-4-------4-4---7-5-4---4/16-16--------------|
E|----------------------------------------------------------------------------|


G|---------------------------------------------------------------18-----------|
D|----------------------------------------------------------------------------|
A|--4--4-4---7-5-4-------4-4---7-5-4-------4-4---7-5-4---4/16-16--------------|
E|----------------------------------------------------------------------------|


G|----------------------------------------------------------------------------|
D|----------------------------------------------------------------------------|
A|--4--4-4---7-5-4-------4-4---7-5-4-------4-4---7-5-4-4-4--------------------|
E|----------------------------------------------------------------------------|


G|-----------|-------------------------------------------------------------------------|
D|-----------|-------------------------------------------------------------------------|
A|-----------|-------------------------------------------------------------------------|
E|----3-2----|-------3-2---2-3-5-3-2---0-0---3-2---2-3-5-3-2---3-2---2-3-5-3-2---0-0---|

G|---------------------------------------------------------------|
D|---------------------------------------------------------------|
A|---------------------------------------------------------------|
E|---3-2---2-3-5-3-2---3-2---2-3-5-3-2---0-0---3-2---2-3-5-3-2---|

G|----------------------------------------------|
D|----------------------------------------------|
A|---------------------4---6---7----------------|
E|---0-0--1-1--2--------------------------3--2--|

            
            
Suggest correction
Creating personal tab
Creating personal tab
You can edit any tab online and save it as your Personal.

You can edit, replace or remove any tab part or add personal notes – all changes will be seen only by you.

Personal tabs can be accessed anytime from any device, even offline.
Learn more »
Give kudos to tab author, rate the tab!
1 2 3 4 5
comments
print report bad tab
guest
Wanna post a correction for this tab? Suggest correction