Oops, an error
Loading. Please wait.

Crazy Babies tab

version 2
version 2

Whole song

Interactive

17,457 views 24 this week
1 commentread comment
1 2 3 4 5
x 6
add to favorites
×
Save as Personal and add changes to this tab that will be seen only by you. Learn more ›
×
You can save this tab as Personal to edit and correct it or add notes. All changes will be seen only by you. Learn more »
launch autoscroll
font size
0
reset
how to read this tab
guitar tuner
backing track
0:00
0:00
edit
Autoscroll
slow
fast
+/-
esc
set tempo
stop
Author
Standard Tuning

PH = pinch harmonic or "squeel"

1,2,3===================================||4===================================|
|-------------------|-------------------|-------------3-------|--------------|
|-------------------|-------------------|-------------3-2/4\2-|--------------|
|-------------------|-------------------|---------------2/4\2-|--------------|
|----------------2--|-----------2-----2-|---------------------|-----2------2-|
|2----2-2-2------0--|-2-----2---0-PH--0-|-2----2-2-2----------|-2---0-PH---0-|
|0----0-0-0--0-3----|-0-----0-3---3^----|-0----0-0-0----------|-0-3---3^-----|

Verse: "they'd better come down soon or everyone will know just why"
|------------------------|-----------------------|--------|
|----------3-------------|--3---------------3----|-9~~~---|
|----------2-------2-----|--2--------2------2----|-9------|
|-2--------0-------2-----|--0--------2------0----|-9------|
|-2----------------0-----|-------0-0-0-----------|--------|
|-0----------------------|-----------------------|--------|

----------------------------------|---------------3-------|
----------------------------------|-9~~~----------3-2/4\2-|fig. - 2nd half
----------------------------------|-9---------------2/4\2-|
-----------------------2--------2-|-9---------------------|
PM..................---0-PH-----0-|-----------------------|
-0-0-0-0-0-0-0-0-0-0-3---3^--0----|------0--0--0----------|

"Nobodys gonna tame them...they're never gonna stop..."
|-----------------|-------------------|------3------------|
|-9~~-------------|-------------------|------3----3-------|
|-9---------------|-------------------|------0----2-------|
|-9---------------|-----------2-----2-|-2----0----0-------|
|-----------------|-----------0-PH--0-|-2-----------------|
|-----0-0-0-0-0-0-|-0-0-0-0-3---3^----|-0----3------------|
                                     "Walk that walk"
|---------------|-------------/15~~~-|--------------------|
|---------------|-------------/14----|-------------3------|
|-2-2-2-2-2-2-2-|-7---5---2---/14----|-7--5--2-----0------|
|-2-2-2-2-2-2-2-|-7---5---2----------|-7--5--2-----0------|
|-0-0-0-0-0-0-0-|-5---3---0----------|-5--3--0------------|
|---------------|--------------------|---------3-3-3------|
                   "Talk that talk"
|----------/15~~--|---------------|
|----------/14----|-------------3-|
|-7--5--2--/14----|-7--5--2-----0-|
|-7--5--2---------|-7--5--2-----0-|
|-5--3--0---------|-5--3--0-------|
|-----------------|---------3-3-3-|

Interlude:
|-------------------release---------------------|
|--------------15^----^----^--------------------|
|-4------------------------------12h14p12-------|
|-4----------------------------------------14---|
|-2-----PH--------------------------------------|
|-------3~~~------------------------------------|

|---------------|--------------|-10--10--10---|10-10-10---|
|-------------7-|--/9----------|---10--10--10-|--9--9--9--|
|-------------7-|--/9----------|--------------|-----------|
|----9-9-7--5-7-|--/9----------|--------------|-----------|
|---------------|--------------|--------------|-----------|
|---------------|--------------|--------------|-----------|

|-9---9---9---|-x\-------|---------------------------|
|---8---8---8-|-x\\-PS---|-9-\-7-7~~~~~~~~~~~~~~~~~--|
|-------------|---\\-----|-9-\-7-7-------------------|
|-------------|----\\----|-9-\-7-7-------------------|
|-------------|-----\\---|-7-\-5-5-------------------|
|-------------|------\\--|---------------------------|

|----------------0--|-------------------------------------|
|----------------0--|----------9-\-7-7~~~~~~~~~~~~~~~~~~--|
|-----2--------4-4--|----------9-\-7-7--------------------|
|-----2--------2----|----------9-\-7-7--------------------|
|-----0----2--------|----------7-\-5-5--------------------|
|-3-3---3^-0--------|-------------------------------------|

Solo:
|--------------------------|------------------------------|
|--------------------------|-----9---12--10--7------------|
|-7-7-7-7----7-7-7-7-------|-9-----------------7~~7~~~~~--|
|---------9----------9~~~~-|---9---9---9---9--------------|
|-------------------PH-----|------------------------------|
|--------------------------|------------------------------|

|-----------------------------|-tap-----------------|
|-----------------------------|---------------PH----|
|-7-7-7-7----7-7-7-7---11p9p7-|-21^^^^^^(9)-7-9~~~--|
|---------9----------9--------|---------------------|
|-----------------------------|---------------------|
|-----------------------------|---------------------|

|-------------------------------------|--------------------------15^-|
|---10^-10--12^-12-10-15^--15-12--15^-|-15-12---15^-15-12--15^-x-----|
|---------9---------------------14----|------14----------14----------|
|-------------------------------------|------------------------------|
|-------------------------------------|------------------------------|
|-------------------------------------|------------------------------|

|--14-13-12-15^--14-|-13-12----------------|
|-------------------|-------14^--12~~~~----|
|-------------------|--------------------8-|
|-------------------|----------------------|
|-------------------|----------------------|
|-------------------|----------------------|

|-10p7-------10p7-------10p7-------10p7--------|
|-----10p7-------10p7-------10p7-------10p7----|
|---------9p7--------9p7--------9p7--------9p7-|
|----------------------------------------------|
|----------------------------------------------|
|----------------------------------------------|

|-10p7-------10p7--------------|--------------------------------------|
|-----10p7-------10p7----------|--------------------------------------|
|---------9p7--------9p7-9~~~~-|-------------------------------797979-|
|------------------------------|-797979-911911911-111211121112--------|
|------------------------------|--------------------------------------|
|------------------------------|--------------------------------------|

|----------------------|-------------------|--------------|
|----------------------|-Pinch Harm.-------|--P.H.--------|
|-11911911-12^--12~~~~-|-------------------|--------------|
|----------------------|-------------------|--------5-----|
|----------------------|-5-----5-----7-----|----7---------|
|----------------------|----7-----5-----4--|-7------------|

|---------------------------|----------------x\-----------|
|------------PH------PH-----|----------------x\\----------|
|-----------(1/2)-----------|------------------\\---------|
|--full--------------full---|-------------------\\--------|
|--7^--------7^------5^-----|-2h5p2h5p2h5p2------\\-------|
|---------------------------|---------------------\\------|

            
            
Suggest correction
Creating personal tab
Creating personal tab
You can edit any tab online and save it as your Personal.

You can edit, replace or remove any tab part or add personal notes – all changes will be seen only by you.

Personal tabs can be accessed anytime from any device, even offline.
Learn more »
comments
print report bad tab
1 comment total.
0 reply
rockfanatik00 31 Sep 01, 2007 05:09 PM

sounds good but the slide in the intro is wrong. its a two string bend and u need a chorus pedal for the exact sound

guest
You may want to rate the tab now too:
select rating
Wanna post a correction for this tab? Suggest correction