Oops, an error
Loading. Please wait.
We have an official Crazy Train tab made by UG professional guitarists. Check out the tab »
×
16,981 views 438 this week
8 commentsread comments
1 2 3 4 5
x 12
add to favorites
×
Save as Personal and add changes to this tab that will be seen only by you. Learn more ›
×
You can save this tab as Personal to edit and correct it or add notes. All changes will be seen only by you. Learn more »
launch autoscroll
font size
0
reset
how to read this tab
guitar tuner
backing track
0:00
0:00
edit
Autoscroll
slow
fast
+/-
esc
set tempo
stop
Author
Difficulty
                          "Crazy Train Live"
                            "Ozzy Osbourne"
                              "1981"         From the "TRIBUTE" album.


Intro
                (crazy train..)
E----------------------------------------------|    2x
B----------------------------------------------|
G--11-11\----------------------11-11\---7---9--|
D--11-11\---2-2----------------11-11\---7---9--|
A---9--9\---0-0-0----2-2--------9--9\---5---7--|
E-----------------4--0-0--2-0------------------|
                . .       . .


E---------12~~---------------------------------|
B--12gb----------------------------------------|
G---------------11b-11b-11b-11b-11b-11b-11br---|
D----------------------------------------------|
A----------------------------------------------|
E----------------------------------------------|
                ph  ph  ph  ph  ph  ph  ph


E----------------------------------------------|  On the 4gb set volume of
B----------------------------------------------|  Treble to 10 and rhythm to
G--4gb---------------------------X\------------|  0 and alternate between the
D--------------------------------X\------------|    two.
A---------------------------0----X\------------|
E---------------------------------------17\----|


      3x
E----------------------------------|------------------------0-|
B----------------------------------|--------------------3---0-|
G----------------------------------|--------------------2---1-|
D----------------------------------|--------------------0---2-|
A------4---5---4---2-0---0-2-0-----|-------4---5---4p2------2-|
E--2-2---2---2---2-----4-------4-0-|---2-2---2---2----------0-|

Riff

E----------------------------------------------|
B-------5---------5---------3------------------|
G-------6---------4---------2----------2-----2-|
D-------7---------6---------4----------2-----2-|
A--0-00---0-0-0-0---0-0-0-0---0-0-0-0--0-----0-|
E-----------------------------------------3b---|
   . ..   . . . .   . . . .   . . . .

E-------------------------------------------------------------|
B-------5---------5---------3---------------------------------|
G-------6---------4---------2----------2----4p2p0-------------|
D-------7---------6---------4----------2----------4p2p0-------|
A--0-00---0-0-0-0---0-0-0-0---0-0-0-0--0----------------4p2p0-|
E-------------------------------------------------------------|
   . ..   . . . .   . . . .   . . . .

  
E---------------------------------------------|
B-------5---------5---------3-----------------|
G-------6---------4---------2----------2----2-|
D-------7---------6---------4----------2----2-|
A--0-00---0-0-0-0---0-0-0-0---0-0-0-0--0----0-|
E-----------------------------------------3b--|
   . ..   . . . .   . . . .   . . . .

   
E----------------------------------------------|
B-------5---------5---------3------------------|
G-------6---------4---------2----------2---5~~-|
D-------7---------6---------4----------2-------|
A--0-00---0-0-0-0---0-0-0-0---0-0-0-0--0-------|
E----------------------------------------------|
   . ..   . . . .   . . . .   . . . .      ph


E----------------------------------------------|
B-------5---------5---------3------------------|
G-------6---------4---------2----------2----2--|
D-------7---------6---------4----------2----2--|
A--0-00---0-0-0-0---0-0-0-0---0-0-0-0--0----0--|
E----------------------------------------3b----|
   . ..   . . . .   . . . .   . . . .

E----------------------------------------------|
B-------5---------5---------3------------------|
G-------6---------4---------2------------------|
D-------7---------6---------4------------------|
A--0-00---0-0-0-0---0-0-0-0---------0-----0----|
E-----------------------------0-2-3---0-3------|
   . ..   . . . .   . . . .   . . . . . . .

E----------------------------------------------|
B-------5---------5---------3------------------|
G-------6---------4---------2---------2----2---|
D-------7---------6---------4---------2----2---|
A--0-00---0-0-0-0---0-0-0-0---0-0-0-0-0----0---|
E----------------------------------------3b----|
   . ..   . . . .   . . . .   . . . .    

E--------------------------------------------|
B-------5---------5---------3----------------|
G-------6---------4---------2---------2---5~-|
D-------7---------6---------4---------2------|
A--0-00---0-0-0-0---0-0-0-0---0-0-0-0-0------|
E--------------------------------------------|
   . ..   . . . .   . . . .   . . . .     ph

E--------------------------------------------|
B-------5---------5---------3----------------|
G-------6---------4---------2---------2----2-|
D-------7---------6---------4---------2----2-|
A--0-00---0-0-0-0---0-0-0-0---0-0-0-0-0----0-|
E---------------------------------------3b---|
   . ..   . . . .   . . . .   . . . .

E----------------------------------------|
B-----5\--3/5------3---------------------|
G-----6\--2/4------2-----2---------------|
D-----7\--4/6------0-----2---------------|
A-0-0---------0-0--------0---------------|
E--------------------2-3----2/14\2-------|
  . .         . .    . .



Chorus

E---------------------5----------------------------|
B--------------------5-5----------------3----------|
G----------------7--5---5---------------2----------|
D----------------7----------------------0----------|
A--4---4----4----5---------4---4---------------16\-|
E--2-0-2----2-0------------2-0-2--0-2p0----/16-----|
                    H----|


E---------------------------2---------------------------------------|
B-------------------------2---5p2h3p2--2----------------------------|
G--2-2------------------4b------------5--5p4p2--2-------------------|
D--2-2-------2--2------------------------------4--4-2---------------|
A--0-0--0----2--2-----0-------------------------------4-2h3p2h3p2-0-|
E---------4--0--0--0-4----------------------------------------------|
        . .

E----------0------------------------------------------------------0-|
B----------0---------------------------------------------------3--0-|
G--2-------1---------------------------------------------------2--1-|
D--2-------2----------------------2----------------------------0--2-|
A--0--0----2-------4---4--*-------0-----2--------4---4---*--------2-|
E-------4--0--X\\--2-0-2----*-2-4---4-2-0-2-4~~--2-0-2--*--2-0----0-|
      . .                 H--|                         H--|


Riff

E---------------------------------------------|
B-------5---------5---------3-----------------|
G-------6---------4---------2---------2----2--|
D-------7---------6---------4---------2----2--|
A--0-00---0-0-0-0---0-0-0-0---0-0-0-0-0----0--|
E---------------------------------------3b----|
   . ..   . . . .   . . . .   . . . .

E----------------------------------------------------------|
B-------5---------5---------3------------------------------|
G-------6---------4---------2---------2--4p2p0-------------|
D-------7---------6---------4---------2--------4p2p0-------|
A--0-00---0-0-0-0---0-0-0-0---0-0-0-0-0--------------4p2p0-|
E----------------------------------------------------------|
   . ..   . . . .   . . . .   . . . .    

E---------------------------------------------|
B-------5---------5---------3-----------------|
G-------6---------4---------2---------2----2--|
D-------7---------6---------4---------2----2--|
A--0-00---0-0-0-0---0-0-0-0---0-0-0-0-0----0--|
E---------------------------------------3b----|
   . ..   . . . .   . . . .   . . . .

E-------------------------------------------|
B-------5---------5--------3----------------|
G-------6---------4--------2---------2--5~~-|
D-------7---------6--------4---------2------|
A--0-00---0-0-0-0---0-0-0-0--0-0-0-0-0------|
E-------------------------------------------|
   . ..   . . . .   . . . .  . . . .     

E--------------------------------------------|
B-------5---------5---------3----------------|
G-------6---------4---------2---------2----2-|
D-------7---------6---------4---------2----2-|
A--0-00---0-0-0-0---0-0-0-0---0-0-0-0-0----0-|
E---------------------------------------3b---|
   . ..   . . . .   . . . .   . . . . 

E-----------------------------------------------------|
B-------5---------5---------3-------------------------|
G-------6---------4---------2---------4p2h4p2h4p2h4p2-|
D-------7---------6---------4-------------------------|
A--0-00---0-0-0-0---0-0-0-0---0-0-0-0-----------------|
E-----------------------------------------------------|
   . ..   . . . .   . . . .   . . . .

E--------------------------------------------|
B-------5---------5---------3----------------|
G-------6---------4---------2---------2---2--|
D-------7---------6---------4---------2---2--|
A--0-00---0-0-0-0---0-0-0-0---0-0-0-0-0---0--|
E---------------------------------------3b---|
   . ..   . . . .   . . . .   . . . .

E--------------------------------------------|
B-------5---------5---------3----------------|
G-------6---------4---------2---------2------|
D-------7---------6---------4---------2------|
A--0-00---0-0-0-0---0-0-0-0---0-0-0-0-0------|
E---------------------------------------0h3b-|
   . ..   . . . .   . . . .   . . . .

E--------------------------------------------|
B-------5---------5---------3----------------|
G-------6---------4---------2---------2---2--|
D-------7---------6---------4---------2---2--|
A--0-00---0-0-0-0---0-0-0-0---0-0-0-0-0---0--|
E---------------------------------------3b---|
   . ..   . . . .   . . . .   . . . .

E--------------------------------|
B-----5\--3/5------3-------------|
G-----6\--2/4------2-----2-------|
D-----7\--4/6------0-----2-------|
A-0-0---------0-0--------0-------|
E--------------------2-3---2/14\2|
  . .         . .    . .

Chorus

E----------------5---------------------------------------|
B-----------------5--------------------------------------|
G-------------7----5-------------7-----------------------|
D-------------7----5-------------7-----2-2---------------|
A-4---4--4----5------4---4--4----5-----0-0-----2-2-----0-|
E-2-0-2--2-0---------2-0-2--2-0----17\-----4-0-0-0-0-4---|
                H---|

E--9p5--10p6--11p7--12p8--13p9--14p10--15p11--------|
B-----7------8-----9----10----11-----12-----13------|
G---------------------------------------------------|
D---------------------------------------------------|
A---------------------------------------------------|
E-----------------------------------------------17\-|

E---------0------------------------------------------------0-|
B---------0----------------------------------------------3-0-|
G---------1----------------------------------------------2-1-|
D-2-2-----2-------------------2--------------------------0-2-|
A-0-0-----2------4---4--*-----0-----2------4---4-----------2-|
E-----4-0-0-X\\--2-0-2-*--2-4---4-2-0-2-4~-2-0-2-*-*-2-0---0-|


Bridge

E--------------------------------------------------|
B--------------------------------------------------|
G-11-11\-------------------11-11\--7-7--9-9-11-11\-|
D-11-11\--2-2--------------11-11\--7-7--9-9-11-11\-|
A--9--9\--0-0-0---2-2-------9--9\--5-5--7-7--9--9\-|
E---------------4-0-0--2-0-------------------------|
              . .      . .

E----------------------------------|
B----------------------------------|
G-------------------11-11\---7---9-|
D--2-2--------------11-11\---7---9-|
A--0-0-0---2-2-------9--9\---5---7-|
E--------4-0-0--2-0----------------|
       . .      . .


Solo
  T     T          T     T          T     T          T     T
E---------------------------------------------------------------------|
B-14p10-14p10p7h10-14p10-14p10p7h10-14p10-14p10p7h10-14p10-14p10p7h10-|
G---------------------------------------------------------------------|
D---------------------------------------------------------------------|
A---------------------------------------------------------------------|
E---------------------------------------------------------------------|
   T    T          T     T          T     T          T     T
E---------------------------------------------------------------------|
B-15p10-15p10p7h10-15p10-15p10p7h10-15p10-15p10p7h10-15p10-15p10p7h10-|
G---------------------------------------------------------------------|
D---------------------------------------------------------------------|
A---------------------------------------------------------------------|
E---------------------------------------------------------------------|
                                 
E-------------------------------------------------------------------------|
B-12p9h12p9h12p9h12p9h12p9h11p9\7h10p7h10p7-----10------------------------|
G--------------------------------------------9b----9b~~~------------------|
D-------------------------------------------------------------------------|
A-------------------------------------------------------------------------|
E-------------------------------------------------------------------------|

E---17--16--14-------14--16--17--17b~~------------------------------------|
B--------------17b~~------------------------------------------------------|
G-------------------------------------------------------------------------|
D-------------------------------------------------------------------------|
A-------------------------------------------------------------------------|
E-------------------------------------------------------------------------|
 

E--14-17-14----14------------------------------------------|
B-----------17----17p15p14-15p14----14------------17-------|
G--------------------------------16----16p14--16b----14~~--|
D----------------------------------------------------------|
A----------------------------------------------------------|
E----------------------------------------------------------|

E-17p14h17p14h17p14h17p14h17p14h18p15h19p16h21p17h21p17h21p17h21p17-
B-------------------------------------------------------------------|
G-------------------------------------------------------------------|
D-------------------------------------------------------------------|
A-------------------------------------------------------------------|
E-------------------------------------------------------------------|

E-20p16h20p16h20p16h20p16-14h16p14----17-------|
B----------------------------------17b---17b~~-|
G----------------------------------------------|
D----------------------------------------------|
A----------------------------------------------|
E----------------------------------------------|

E--------------------------------------------------------------------------|
B-15-14--------------------------------------------------------------------|
G-------16--14----------14----------14----------14-------------------------|
D--------------16-14-------16-14-------16-14-------16-14----13h14p13h14/16-|
A--------------------16----------16----------16----------16----------------|
E--------------------------------------------------------------------------|
             .  .  .  .  .  .  .  .  .  .  .  .  .  .  .  .

E----------------------------14-16-19-16-17-19-19b~~-19b~~-----------------|
B-------------------14-15-16-----------------------------------------------|
G-----------13-14-16-------------------------------------------------------|
D------14-16---------------------------------------------------------------|
A-14-16--------------------------------------------------------------------|
E--------------------------------------------------------------------------|

     3x
E----------------------------------|---------------------0-|
B----------------------------------|------------------3--0-|
G----------------------------------|------------------2--1-|
D----------------------------------|------------------0--2-|
A------4---5---4---2-0--0-2-0------|-----4---5---4p2-----2-|
E--2-2---2---2---2-----4------4-0--|-2-2---2---2---------0-|

Riff

E----------------------------------------------------------|
B------5---------5---------3-------------------------------|
G------6---------4---------2---------2----2----------------|
D------7---------6---------4---------2----2----------------|
A-0-00---0-0-0-0---0-0-0-0---0-0-0-0-0----0----------------|
E--------------------------------------3b------------------|
  . ..   . . . .   . . . .   . . . .
E----------------------------------------------------------|
B------5---------5---------3-------------------------------|
G------6---------4---------2---------2---4p2p0-------------|
D------7---------6---------4---------2---------4p2p0-------|
A-0-00---0-0-0-0---0-0-0-0---0-0-0-0-0---------------4p2p0-|
E----------------------------------------------------------|
  . ..   . . . .   . . . .   . . . .

E----------------------------------------------------------|
B------5---------5---------3-------------------------------|
G------6---------4---------2---------2----2----------------|
D------7---------6---------4---------2----2----------------|
A-0-00---0-0-0-0---0-0-0-0---0-0-0-0-0----0----------------|
E--------------------------------------3b------------------|
  . ..   . . . .   . . . .   . . . .

E----------------------------------------------------------|
B------5---------5---------3----14h15-15/17-17\15----------|
G------6---------4---------2----14----14/16-16\14----------|
D------7---------6---------4-------------------------------|
A-0-00---0-0-0-0---0-0-0-0---0-0---------------------------|
E----------------------------------------------------------|
  . ..   . . . .   . . . .   . .

E----------------------------------------------------------|
B------5---------5---------3-------------------------------|
G------6---------4---------2---------2----2----------------|
D------7---------6---------4---------2----2----------------|
A-0-00---0-0-0-0---0-0-0-0---0-0-0-0-0----0----------------|
E--------------------------------------3b------------------|
  . ..   . . . .   . . . .   . . . .

E----------------------------------------------------------|
B------5---------5---------3-------------------------------|
G------6---------4---------2---------2--5~~~---------------|
D------7---------6---------4---------2---------------------|
A-0-00---0-0-0-0---0-0-0-0---0-0-0-0-0---------------------|
E----------------------------------------------------------|
  . ..   . . . .   . . . .   . . . .    ph

E----------------------------------------------------------|
B------5---------5---------3-------------------------------|
G------6---------4---------2---------2----2----------------|
D------7---------6---------4---------2----2----------------|
A-0-00---0-0-0-0---0-0-0-0---0-0-0-0-0----0----------------|
E--------------------------------------3b------------------|
  . ..   . . . .   . . . .   . . . .

E----------------------------------------------------------|
B------5---------5---------3-------------------------------|
G------6---------4---------2---------2---------------------|
D------7---------6---------4---------2---------------------|
A-0-00---0-0-0-0---0-0-0-0---0-0-0-0-0---------------------|
E--------------------------------------0h3b----------------|
  . ..   . . . .   . . . .   . . . .

E----------------------------------------------------------|
B------5---------5---------3-------------------------------|
G------6---------4---------2---------2-----2---------------|
D------7---------6---------4---------2-----2---------------|
A-0-00---0-0-0-0---0-0-0-0---0-0-0-0-0-----0---------------|
E--------------------------------------3b------------------|
  . ..   . . . .   . . . .   . . . .

E----------------------------------------------------------|
B-----5\--3/5--------3-------------------------------------|
G-----6\--2/4--------2------2------------------------------|
D-----7\--4/6--------0------2------------------------------|
A-0-0-----------0-0---------0------------------------------|
E-----------------------2-3----2/14\2----------------------|
  . .           . .     . .

Chorus

E-----------------5---------------------------------------------|
B------------------5--------------------------------------------|
G--------------7----5---------------7--/18-20\------------------|
D--------------7--------------------7-----------2-2-------------|
A--4---4--4----5--------4---4--4----5-----------0-0-----2-2-----|
E--2-0-2--2-0-----------2-0-2--2-0------------------4-2-0-0-0-4-|
                 H---|                              . .    

E-17br-17p14----14--------------------------------------------|
B------------17----17p15p14h15p14----14-----------------------|
G---------------------------------16---16p14---14-------------|
D--------------------------------------------16--16p14--------|
A------------------------------------------------------14br\--|
E-------------------------------------------------------------|

E---------0----------------------------------------------------0-|
B---------0-----------------------------------------------3-3--0-|
G---------1-----------------------------------------------2-2--1-|
D-2-2-----2--------------------2--------------------------0-0--2-|
A-0-0-----2------4---4---*-----0-----2------4---4--------------2-|
E-----4-0-0--X\--2-0-2-*---2-4---4-2-0-2-4~-2-0-2-*-*-2-0------0-|
                                                                  

Outro
              2x
E-------------------------------------------|
B-------------------------------------------|
G-11-11\---------------------11-11\--7----9-|
D-11-11\--2-2----------------11-11\--7----9-|
A--9--9\--0-0-0----2-2--------9--9\--5----7-|
E---------------4--0-0--2-0-----------------|
              . .       . .

E---------12~~~-------------------------------------------------------------|
B--12gb---------------------------------------------------------------------|
G----------------11b-11b-11b-11b-11b-11b-11br------4gb(toggle switch thing)-|
D---------------------------------------------------------------------------|
A---------------------------------------------------------------------------|
E---------------------------------------------------------------------------|
                  ph  ph  ph  ph  ph  ph  ph
E-----------------------------------------------------------------------|
B-----------------------------------------------------------------------|
G--X\-------------------------------------------------------------------|
D--X\-------------------------------------------------------------------|
A--X\-----4---5---4---2-0---0-2-0-----------4---5---4---2-0---0-2-0-----|
E-----2-2---2---2---2-----4-------4-0---2-2---2---2---2-----4-------4-0-|

E----------------------------------------------------------0-------|
B-------------------------------------------------------3--0--7-7\-|
G-------------------------------------------------------2--1--6-6\-|
D-------------------------------------------------------0--2--4-4\-|
A------4---5---4---2-0---0-2-0-----------4---5---4p2-------2-------|
E--2-2---2---2---2-----4-------4-0---2-2---2---2-----------0-------|


You are FINALY done!!!!!!!

                             LEGEND

                          \=slide down the neck
                          .=palm mute
                         gb=grad.bend
                          ~=vibrato
                          b=bend
                         ph=pinch harmonic
                          X=pick scratch
                          p=pull-off
                          H=natural harmonic
                          h=hammer-on
                          *=harmonic located between 2nd and 3rd frets
                          T=Tap with pick or right hand middle finger
                          /=slide up the neck

Please rate,comment,and take a moment to remember Randy Rhoads.

            
            
Suggest correction
Creating personal tab
Creating personal tab
You can edit any tab online and save it as your Personal.

You can edit, replace or remove any tab part or add personal notes – all changes will be seen only by you.

Personal tabs can be accessed anytime from any device, even offline.
Learn more »
comments
print report bad tab
8 comments total. Showing first comments.
0 reply
DanteNev3rCry 10 Apr 15, 2010 07:46 PM

Wow dude,,firts of all I dont konw why this tab has only one rate and any coments,,this is very F*********ING awesome sounds great to me keep it up..Tony

0 reply
GarbageBoy 183 Apr 16, 2010 01:36 PM

thanks man it's good to hear that.

0 reply
munchkin001 10 Jul 08, 2010 12:43 PM

dude...kudos to you man!!!...i love this version, randys version has heart and the oomph we love from him...zakk is good but randy is better. plus the intro solo is epic. keep up the sweet job man

guest
You may want to rate the tab now too:
select rating
Wanna post a correction for this tab? Suggest correction