Oops, an error
Loading. Please wait.

I Dont Know tab

version 2
version 2

Whole song

5,843 views 6 this week
4 commentsread comments
1 2 3 4 5
x 4
add to favorites
×
Save as Personal and add changes to this tab that will be seen only by you. Learn more ›
×
You can save this tab as Personal to edit and correct it or add notes. All changes will be seen only by you. Learn more »
launch autoscroll
font size
0
reset
how to read this tab
guitar tuner
backing track
0:00
0:00
edit
Autoscroll
slow
fast
+/-
esc
set tempo
stop
Author
Difficulty
Tabbers playing skills
intermediate
advanced ++
-------------------------------------------------------------------------------
                             I DON'T KNOW - Ozzy Osbourne
-------------------------------------------------------------------------------

Tabbed by: Isaias Garcia (TexasFury)

Tuning: Standard

Rhythm - left

     Intro
                                 PM PM PM PM PM PM PM PM PM PM PM PM
     H         H            Q    S  S  S  S  S  S  S  S  S  S  S  S
E||----------------------|-------------------------------------------|
B||----------------------|-------------------------------------------|
G||----------------------|--2----------------------------------------|
D||----------------------|--2----------------------------------------|
A||----------------------|--0----0--0--0--0--0--0--0--0--0--0--0--0--|
E||-----------17\--------|-------------------------------------------|


       PM PM PM PM PM PM PM PM PM PM PM PM         PM PM PM PM PM PM PM PM
  Q    S  S  S  S  S  S  S  S  S  S  S  S     Q    S  S  S  S  S  S  S  S   Q
-------------------------------------------|--------------------------------------|
-------------------------------------------|--------------------------------------|
--4----------------------------------------|--5-----------------------------------|
--4----------------------------------------|--5-----------------------------------|
-------0--0--0--0--0--0--0--0--0--0--0--0--|-------0--0--0--0--0--0--0--0---------|
-------------------------------------------|-------------------------------12\----|


                              PM PM PM PM PM PM PM PM PM PM PM PM
  H        Q    Q        Q    S  S  S  S  S  S  S  S  S  S  S  S
--3-------------------|-------------------------------------------|
--3--------3----------|-------------------------------------------|
--0--------2----------|--2----------------------------------------|
--0--------0----------|--2----------------------------------------|
-----------0----------|--0----0--0--0--0--0--0--0--0--0--0--0--0--|
--3-------------3~----|-------------------------------------------|


       PM PM PM PM PM PM PM PM PM PM PM PM         PM PM PM PM PM PM PM PM
  Q    S  S  S  S  S  S  S  S  S  S  S  S     Q    S  S  S  S  S  S  S  S   Q
-------------------------------------------|--------------------------------------|
-------------------------------------------|--------------------------------------|
--4----------------------------------------|--5-----------------------------------|
--4----------------------------------------|--5-----------------------------------|
-------0--0--0--0--0--0--0--0--0--0--0--0--|-------0--0--0--0--0--0--0--0---------|
-------------------------------------------|-------------------------------12\----|


                                           Verse 1
                                                   PM PM PM PM PM PM PM PM PM PM PM PM
  S  S S  S S  S S  S S  S S  S S  S E     Q       S  S  S  S  S  S  S  S  S  S  S  S
----------------------------------------|----------------------------------------------|
--1p-0-1p-0-1p-0------------------------|----------------------------------------------|
-----------------2p-0-2p-0--------------|--2-------------------------------------------|
---------------------------2p-0---------|--2-------------------------------------------|
--------------------------------3p-0----|--0-------0--0--0--0--0--0--0--0--0--0--0--0--|
-------------------------------------3--|----------------------------------------------|


       PM PM PM PM PM PM PM PM PM PM PM PM         PM PM PM PM PM PM PM PM
  Q    S  S  S  S  S  S  S  S  S  S  S  S     Q    S  S  S  S  S  S  S  S   Q
-------------------------------------------|--------------------------------------|
-------------------------------------------|--------------------------------------|
--4----------------------------------------|--5-----------------------------------|
--4----------------------------------------|--5-----------------------------------|
-------0--0--0--0--0--0--0--0--0--0--0--0--|-------0--0--0--0--0--0--0--0---------|
-------------------------------------------|-------------------------------12\----|


                              PM PM PM PM PM PM PM PM PM PM PM PM
  H        Q    Q        Q    S  S  S  S  S  S  S  S  S  S  S  S
--3-------------------|-------------------------------------------|
--3--------3----------|-------------------------------------------|
--0--------2----------|--2----------------------------------------|
--0--------0----------|--2----------------------------------------|
-----------0----------|--0----0--0--0--0--0--0--0--0--0--0--0--0--|
--3-------------3~----|-------------------------------------------|


       PM PM PM PM PM PM PM PM PM PM PM PM         PM PM PM PM PM PM PM PM
  Q    S  S  S  S  S  S  S  S  S  S  S  S     Q    S  S  S  S  S  S  S  S   Q
-------------------------------------------|--------------------------------------|
-------------------------------------------|--------------------------------------|
--4----------------------------------------|--5-----------------------------------|
--4----------------------------------------|--5-----------------------------------|
-------0--0--0--0--0--0--0--0--0--0--0--0--|-------0--0--0--0--0--0--0--0---------|
-------------------------------------------|-------------------------------12\----|


                            PM PM PM PM PM PM PM PM PM PM PM PM
  H        H           Q    S  S  S  S  S  S  S  S  S  S  S  S
--------------------|-------------------------------------------|
--------------------|-------------------------------------------|
--------------------|--2----------------------------------------|
--------------------|--2----------------------------------------|
-----------5--------|--0----0--0--0--0--0--0--0--0--0--0--0--0--|
--3-----------------|-------------------------------------------|


       PM PM PM PM PM PM PM PM PM PM PM PM         PM PM PM PM PM PM PM PM
  Q    S  S  S  S  S  S  S  S  S  S  S  S     Q    S  S  S  S  S  S  S  S   Q
-------------------------------------------|--------------------------------------|
-------------------------------------------|--------------------------------------|
--4----------------------------------------|--5-----------------------------------|
--4----------------------------------------|--5-----------------------------------|
-------0--0--0--0--0--0--0--0--0--0--0--0--|-------0--0--0--0--0--0--0--0---------|
-------------------------------------------|-------------------------------12\----|


                              PM PM PM PM PM PM PM PM PM PM PM PM
  H        Q    Q        Q    S  S  S  S  S  S  S  S  S  S  S  S
--3-------------------|-------------------------------------------|
--3--------3----------|-------------------------------------------|
--0--------2----------|--2----------------------------------------|
--0--------0----------|--2----------------------------------------|
-----------0----------|--0----0--0--0--0--0--0--0--0--0--0--0--0--|
--3-------------3~----|-------------------------------------------|


       PM PM PM PM PM PM PM PM PM PM PM PM         PM PM PM PM PM PM PM PM
  Q    S  S  S  S  S  S  S  S  S  S  S  S     Q    S  S  S  S  S  S  S  S   Q
-------------------------------------------|--------------------------------------|
-------------------------------------------|--------------------------------------|
--4----------------------------------------|--5-----------------------------------|
--4----------------------------------------|--5-----------------------------------|
-------0--0--0--0--0--0--0--0--0--0--0--0--|-------0--0--0--0--0--0--0--0---------|
-------------------------------------------|-------------------------------12\----|


                       Pre-chorus
                                                  PM PM PM PM PM
  H        H           Q          H.              E  E  E  E  E  E  E    E     Q    H.
--3-----------------|-------------3------------|-----------------3----------|-------3------------|
--3-----------------|-------------3------------|-----------6----------------|-------3------------|
--0--------7--------|--0-----------------------|-----5--------5-------------|--0-----------------|
--0--------7--------|--0-----------------------|--3-----3-------------------|--0-----------------|
-----------5--------|--------------------------|----------------------------|--------------------|
--3-----------------|--3-----------------------|--------------------5br--L--|--3-----------------|


  PM PM
  E  E  E  E  E  E  E    E     Q    H.
-----------3--L--3----------|-------3------------|
--------6--6--L-------------|-------3------------|
-----5----------------------|--0-----------------|
--3-------------------------|--0-----------------|
----------------------------|--------------------|
--------------------5br--L--|--3-----------------|


  PM PM PM PM PM PM PM PM PM PM PM PM PM PM PM PM
  S  S  S  S  S  S  S  S  S  S  S  S  S  S  S  S     Q    Q    H           H        Q    Q
--------------------------------3--3--------------|---------------------|---------------------|
--------------------6--6--6--6--------6--6--6--6--|-------8-------------|---------------------|
--------5--5--5--5--------------------------------|---------------------|--7--------5---------|
--3--3--------------------------------------------|--7---------5--------|--7--------5----5----|
--------------------------------------------------|--8---------7--------|--5--------3----5----|
--------------------------------------------------|---------------------|----------------3----|


       PM PM PM PM PM PM PM PM PM PM PM PM         PM PM PM PM PM PM PM PM PM PM PM PM
  Q    S  S  S  S  S  S  S  S  S  S  S  S     Q    S  S  S  S  S  S  S  S  S  S  S  S
-------------------------------------------|-------------------------------------------|
-------------------------------------------|-------------------------------------------|
--2----------------------------------------|--4----------------------------------------|
--2----------------------------------------|--4----------------------------------------|
--0----0--0--0--0--0--0--0--0--0--0--0--0--|-------0--0--0--0--0--0--0--0--0--0--0--0--|
-------------------------------------------|-------------------------------------------|


       PM PM PM PM PM PM PM PM
  Q    S  S  S  S  S  S  S  S   Q        H        Q    Q
--------------------------------------|--3-------------------|
--------------------------------------|--3--------3----------|
--5-----------------------------------|--0--------2----------|
--5-----------------------------------|--0--------0----------|
-------0--0--0--0--0--0--0--0---------|-----------0----------|
-------------------------------12\----|--3-------------3~----|


       PM PM PM PM PM PM PM PM PM PM PM PM         PM PM PM PM PM PM PM PM PM PM PM PM
  Q    S  S  S  S  S  S  S  S  S  S  S  S     Q    S  S  S  S  S  S  S  S  S  S  S  S
-------------------------------------------|-------------------------------------------|
-------------------------------------------|-------------------------------------------|
--2----------------------------------------|--4----------------------------------------|
--2----------------------------------------|--4----------------------------------------|
--0----0--0--0--0--0--0--0--0--0--0--0--0--|-------0--0--0--0--0--0--0--0--0--0--0--0--|
-------------------------------------------|-------------------------------------------|


       PM PM PM PM PM PM PM PM           tr          tr      tr
  Q    S  S  S  S  S  S  S  S   Q        H           Q       Q
--------------------------------------|------------------------------|
--------------------------------------|------------------------------|
--5-----------------------------------|--5(0)--------4(0)----2(0)----|
--5-----------------------------------|------------------------------|
-------0--0--0--0--0--0--0--0---------|------------------------------|
-------------------------------12\----|------------------------------|


  Verse 2
          PM PM PM PM PM PM PM PM PM PM PM PM         PM PM PM PM PM PM PM PM PM PM PM PM
  Q       S  S  S  S  S  S  S  S  S  S  S  S     Q    S  S  S  S  S  S  S  S  S  S  S  S
----------------------------------------------|-------------------------------------------|
----------------------------------------------|-------------------------------------------|
--2-------------------------------------------|--4----------------------------------------|
--2-------------------------------------------|--4----------------------------------------|
--0-------0--0--0--0--0--0--0--0--0--0--0--0--|-------0--0--0--0--0--0--0--0--0--0--0--0--|
----------------------------------------------|-------------------------------------------|


       PM PM PM PM PM PM PM PM
  Q    S  S  S  S  S  S  S  S   Q        H        Q    Q
--------------------------------------|--3-------------------|
--------------------------------------|--3--------3----------|
--5-----------------------------------|--0--------2----------|
--5-----------------------------------|--0--------0----------|
-------0--0--0--0--0--0--0--0---------|-----------0----------|
-------------------------------12\----|--3-------------3~----|


       PM PM PM PM PM PM PM PM PM PM PM PM         PM PM PM PM PM PM PM PM PM PM PM PM
  Q    S  S  S  S  S  S  S  S  S  S  S  S     Q    S  S  S  S  S  S  S  S  S  S  S  S
-------------------------------------------|-------------------------------------------|
-------------------------------------------|-------------------------------------------|
--2----------------------------------------|--4----------------------------------------|
--2----------------------------------------|--4----------------------------------------|
--0----0--0--0--0--0--0--0--0--0--0--0--0--|-------0--0--0--0--0--0--0--0--0--0--0--0--|
-------------------------------------------|-------------------------------------------|


       PM PM PM PM PM PM PM PM
  Q    S  S  S  S  S  S  S  S   Q        H        H
--------------------------------------|--------------------|
--------------------------------------|--------------------|
--5-----------------------------------|--------------------|
--5-----------------------------------|--------------------|
-------0--0--0--0--0--0--0--0---------|-----------5--------|
-------------------------------12\----|--3-----------------|


       PM PM PM PM PM PM PM PM PM PM PM PM         PM PM PM PM PM PM PM PM PM PM PM PM
  Q    S  S  S  S  S  S  S  S  S  S  S  S     Q    S  S  S  S  S  S  S  S  S  S  S  S
-------------------------------------------|-------------------------------------------|
-------------------------------------------|-------------------------------------------|
--2----------------------------------------|--4----------------------------------------|
--2----------------------------------------|--4----------------------------------------|
--0----0--0--0--0--0--0--0--0--0--0--0--0--|-------0--0--0--0--0--0--0--0--0--0--0--0--|
-------------------------------------------|-------------------------------------------|


       PM PM PM PM PM PM PM PM
  Q    S  S  S  S  S  S  S  S   Q        H        Q    Q
--------------------------------------|--3-------------------|
--------------------------------------|--3--------3----------|
--5-----------------------------------|--0--------2----------|
--5-----------------------------------|--0--------0----------|
-------0--0--0--0--0--0--0--0---------|-----------0----------|
-------------------------------12\----|--3-------------3~----|


       PM PM PM PM PM PM PM PM PM PM PM PM         PM PM PM PM PM PM PM PM PM PM PM PM
  Q    S  S  S  S  S  S  S  S  S  S  S  S     Q    S  S  S  S  S  S  S  S  S  S  S  S
-------------------------------------------|-------------------------------------------|
-------------------------------------------|-------------------------------------------|
--2----------------------------------------|--4----------------------------------------|
--2----------------------------------------|--4----------------------------------------|
--0----0--0--0--0--0--0--0--0--0--0--0--0--|-------0--0--0--0--0--0--0--0--0--0--0--0--|
-------------------------------------------|-------------------------------------------|


                                                              Pre-chorus
       PM PM PM PM PM PM PM PM
  Q    S  S  S  S  S  S  S  S   Q        H        H           Q          H.
--------------------------------------|--3-----------------|-------------3------------|
--------------------------------------|--3--------3--------|-------------3------------|
--5-----------------------------------|--0--------2--------|--0-----------------------|
--5-----------------------------------|--0--------0--------|--0-----------------------|
-------0--0--0--0--0--0--0--0---------|-----------0--------|--------------------------|
-------------------------------12\----|--3-----------------|--3-----------------------|


  PM PM PM    PM                                    PM PM
  E  E  E  E  E  E  E    E     Q    H.              E  E  E  E  E  E  E    E     Q    H.
-----------------3----------|-------3------------|-----------3--L-------------|-------3------------|
-----------6----------------|-------3------------|--------6--------6----------|-------3------------|
-----5--------5-------------|--0-----------------|-----5----------------------|--0-----------------|
--3-----3-------------------|--0-----------------|--3-------------------------|--0-----------------|
----------------------------|--------------------|----------------------------|--------------------|
--------------------5br--L--|--3-----------------|--------------------5br--L--|--3-----------------|


  PM PM PM PM PM PM PM PM PM PM PM PM PM PM PM PM
  S  S  S  S  S  S  S  S  S  S  S  S  S  S  S  S     Q    Q    H           H        Q    Q
--------------------------------3--3--------------|---------------------|---------------------|
--------------------6--6--6--6--------6--6--6--6--|-------8-------------|---------------------|
--------5--5--5--5--------------------------------|---------------------|--7--------5---------|
--3--3--------------------------------------------|--7---------5--------|--7--------5----5----|
--------------------------------------------------|--8---------7--------|--5--------3----5----|
--------------------------------------------------|---------------------|-----------3----3----|


  Chorus
  PM     PM                                            PM PM
  E      E  E  E  Q     E  E     H        Q    Q       E  E  E  E  Q     E  E
---------------------------3--|--L------------------|-----------------------3--|
------------8--7--L~-------3--|--L------------------|--------8--7--L~-------3--|
------------7--7--L~-------0--|--L--------5---------|--------7--7--L~-------0--|
------------7--7--L~-------0--|--L--------5----5----|--------7--7--L~-------0--|
--0------0--------------0-----|-----------3----5----|--0--0--------------0-----|
---------------------------3--|--L-------------3----|-----------------------3--|


                        PM PM
  H        Q    Q       E  E  E  E  Q     E  E     H        Q    E  E     H        H
--L------------------|-----------------------3--|--L-------------------|--------------------|
--L------------------|--------8--7--L~-------3--|--L-------------------|--------------------|
--L--------5---------|--------7--7--L~-------0--|--L--------5----------|--------------------|
--L--------5----5----|--------7--7--L~-------0--|--L--------5----5-----|--------------------|
-----------3----5----|--0--0--------------0-----|-----------3----5-----|--------------------|
--L-------------3----|-----------------------3--|--L-------------3--0--|--5--------3--------|


                           Bridge
  Q    E  E  Q    E  E     W                   W                   W
------------------------|-------------------|-------------------|-------------------|
------------------------|-------------------|-------------------|-------------------|
------------------------|--7----------------|--L----------------|-------------------|
-------------3----L-----|--7----------------|--L----------------|-------------------|
-------------3----L-----|--5----------------|--L----------------|-------------------|
--2----L--0--1----L--0--|-------------------|-------------------|-------------------|


  m.87                    Chorus 3
                                   PM
  Q    Q    Q    E  E     E        E  E  E  Q     E  E     Q    E  E  E  E  E  E
-----------------------|--------------------------------|-------------------------|
-----------------------|--------------8--7--L~----------|-------------------------|
------------7----5-----|--------------7--7--L~-------5--|--L----L--7--L-----------|
--7----5----7----5--5--|--------------7--7--L~-------5--|--L----L--7--L-----------|
--8----7----5----3--5--|--0--------0--------------0--3--|--L----L--5--L--5--6--7--|
-----------------3--3--|--------------------------------|-------------------------|


     PM                                                   PM
  E  E  E  E  Q     E  E     Q    E  E  Q    E   E     E  E  E  E  Q     E  E
--------------------------|----------3--3-----------|--------------------------|
--------8--7--L~----------|----------3--3-----------|--------8--7--L~----------|
--------7--7--L~-------5--|--L----L--0--0-----------|--------7--7--L~-------5--|
--------7--7--L~-------5--|--L----L--0--0-----------|--------7--7--L~-------5--|
--0--0--------------0--3--|--L----L--------------0--|--0--0--------------0--3--|
--------------------------|----------3--3----3b-----|--------------------------|


                                                             pick scrape
                               PM
  Q    E  E  E  E  E  E     E  E  E  E  Q     E  E     Q     H           Q
-------------------------|--------------------------|--------------------------|
-------------------------|--------8--7--L~----------|--------------------------|
--L----L--7--L-----------|--------7--7--L~-------5--|--L-----x\----------------|
--L----L--7--L-----------|--------7--7--L~-------5--|--L-----x\----------------|
--L----L--5--L--5--6--7--|--0--0--------------0--3--|--L-----------------------|
-------------------------|--------------------------|-------------------12\----|


  Guitar Solo
  Q           H.              E  E  E  E  Q    Q       Q    H.              E  E  E  E  Q    Q
--------------3------------|------------------------|-------3------------|------------------------|
--------------3------------|------------------------|-------3------------|------------------------|
---------------------------|-----2--------2----2----|--------------------|-----2--------2---------|
---------------------------|-----3--------3----3----|--------------------|-----3--------3---------|
--5------------------------|------------------------|--5-----------------|-------------------3----|
--3------------------------|--1--------1------------|--3-----------------|--1--------1-------1----|


  Q    H.              E  E  E  E  Q    E  E     Q    H.              E  E  E  E  Q    E  E
-------3------------|--------------1----1--1--|-------3------------|-----1--------1-------1--|
-------3------------|--------------1----1--1--|-------3------------|-----1--------1-------1--|
--------------------|-----2-------------------|--------------------|-------------------------|
--------------------|-----3-------------------|--------------------|-------------------------|
--5-----------------|-------------------------|--5-----------------|-------------------------|
--3-----------------|--1--------1-------------|--3-----------------|--1--------1-------1-----|


  Q    H.              E  E  E  E  Q    E  E     Q    H.              E  E  E  E  Q    E  E
-------3------------|-------------------------|-------3------------|-----1-------------------|
-------3------------|-------------------------|-------3------------|-----1-------------------|
--------------------|-----2--------2-------2--|--------------------|--2-----------2----2--2--|
--------------------|-----3--------3-------3--|--------------------|--3-----------3----3--3--|
--5-----------------|-------------------------|--5-----------------|-------------------------|
--3-----------------|--1--------1-------1-----|--3-----------------|-----------1-------------|


  Q    H.              E  E  E  E  Q    E  E     Q    H.              E  E  E  E  Q    E  E
-------3------------|-----1-------------------|-------3------------|-----1-------------------|
-------3------------|-----1-------------------|-------3------------|-----1-------------------|
--------------------|--2-----------2----2--2--|--------------------|--------------2----2--2--|
--------------------|--3-----------3----3--3--|--------------------|--------------3----3--3--|
--5-----------------|-------------------------|--5-----------------|-------------------------|
--3-----------------|-----------1-------------|--3-----------------|--1--------1-------------|


     PM                                                             PM
  E  E  E  E  Q      E   E     Q    E  S  S S  S S  S S  S E     E  E  E  E  E   E  E  E
----------------------------|---------------------------------|---------------------------|
--------8--7--L~------------|----------1p-0-1p-0--------------|--------8--7--L~--7--------|
--------7--7--L~----(0)--5--|--L----L------------2p-0---------|--------7--7--L~--7-----0--|
--------7--7--L~----(0)--5--|--L----L-----------------2p-0----|--------7--7--L~--7--------|
--0--0-------------------3--|--L----L----------------------3--|--0--0---------------0-----|
----------------------------|---------------------------------|---------------------------|


                                         PM
  S E   S S S S  S S  S S S S S E     E  E  E  E  E   E   E   E
------------5----------------------|-----------------------------|
--------5-5---8p-5-6p-5---5--------|--------8--7--L~--7----------|
--L-7b------------------8---8-7-5--|--------7--7--L~--7--(0)--5--|
-----------------------------------|--------7--7--L~--7--(0)--5--|
-----------------------------------|--0--0--------------------3--|
-----------------------------------|-----------------------------|


                                        PM
  Q       E   E   E     E   Q        E  E  E  E  E   E   E   E     Q     H         Q
-------------17-------------------|--------------------------3--|--L---------------------|
--------/20------20br---L---L~----|--------8--7--L~--7-------3--|--L---------------------|
--L/------------------------------|--------7--7--L~--7--(0)--0--|--L---------------------|
--L/------------------------------|--------7--7--L~--7--(0)--0--|--L---------------------|
--L/------------------------------|--0--0-----------------------|------------------------|
----------------------------------|--------------------------3--|--L----19\--------7\----|


  Verse 3
          PM PM PM PM PM PM PM PM PM PM PM PM         PM PM PM PM PM PM PM PM PM PM PM PM
  Q       S  S  S  S  S  S  S  S  S  S  S  S     Q    S  S  S  S  S  S  S  S  S  S  S  S
----------------------------------------------|-------------------------------------------|
----------------------------------------------|-------------------------------------------|
--2-------------------------------------------|--4----------------------------------------|
--2-------------------------------------------|--4----------------------------------------|
--0-------0--0--0--0--0--0--0--0--0--0--0--0--|-------0--0--0--0--0--0--0--0--0--0--0--0--|
----------------------------------------------|-------------------------------------------|


       PM PM PM PM PM PM PM PM
  Q    S  S  S  S  S  S  S  S   Q        H        Q    Q
--------------------------------------|--3-------------------|
--------------------------------------|--3--------3----------|
--5-----------------------------------|--0--------2----------|
--5-----------------------------------|--0--------0----------|
-------0--0--0--0--0--0--0--0---------|-----------0----------|
-------------------------------12\----|--3-------------3~----|


       PM PM PM PM PM PM PM PM PM PM PM PM         PM PM PM PM PM PM PM PM PM PM PM PM
  Q    S  S  S  S  S  S  S  S  S  S  S  S     Q    S  S  S  S  S  S  S  S  S  S  S  S
-------------------------------------------|-------------------------------------------|
-------------------------------------------|-------------------------------------------|
--2----------------------------------------|--4----------------------------------------|
--2----------------------------------------|--4----------------------------------------|
--0----0--0--0--0--0--0--0--0--0--0--0--0--|-------0--0--0--0--0--0--0--0--0--0--0--0--|
-------------------------------------------|-------------------------------------------|


       PM PM PM PM PM PM PM PM
  Q    S  S  S  S  S  S  S  S  S S S  S
-------------------------------------17-|
----------------------------------------|
--5-------------------------------------|
--5-------------------------------------|
-------0--0--0--0--0--0--0--0--0-0-5----|
-----------------------------------3----|


   |--3--|  |--3--|  |--3--|  |--3--|  |--3--|  |--3--|
   S  S  S  S  S  S  S  S  S  S  S  S  S  S  S  S  S  S  Q
--20-17----17--------------------------------------------------|
--------20----20-17-20-17----17--------------------------------|
--------------------------19----19-17----17--------------------|
--------------------------------------19----19-17-19-17--------|
--------------------------------------------------------19\----|
---------------------------------------------------------------|


       PM PM PM PM PM PM PM PM PM PM PM PM         PM PM PM PM PM PM PM PM PM PM PM PM
  Q    S  S  S  S  S  S  S  S  S  S  S  S     Q    S  S  S  S  S  S  S  S  S  S  S  S
-------------------------------------------|-------------------------------------------|
-------------------------------------------|-------------------------------------------|
--2----------------------------------------|--4----------------------------------------|
--2----------------------------------------|--4----------------------------------------|
--0----0--0--0--0--0--0--0--0--0--0--0--0--|-------0--0--0--0--0--0--0--0--0--0--0--0--|
-------------------------------------------|-------------------------------------------|


       PM PM PM PM PM PM PM PM
  Q    S  S  S  S  S  S  S  S   Q        H        Q    Q
--------------------------------------|--3-------------------|
--------------------------------------|--3--------3----------|
--5-----------------------------------|--0--------2----------|
--5-----------------------------------|--0--------0----------|
-------0--0--0--0--0--0--0--0---------|-----------0----------|
-------------------------------12\----|--3-------------3~----|


       PM PM PM PM PM PM PM PM PM PM PM PM         PM PM PM PM PM PM PM PM PM PM PM PM
  Q    S  S  S  S  S  S  S  S  S  S  S  S     Q    S  S  S  S  S  S  S  S  S  S  S  S
-------------------------------------------|-------------------------------------------|
-------------------------------------------|-------------------------------------------|
--2----------------------------------------|--4----------------------------------------|
--2----------------------------------------|--4----------------------------------------|
--0----0--0--0--0--0--0--0--0--0--0--0--0--|-------0--0--0--0--0--0--0--0--0--0--0--0--|
-------------------------------------------|-------------------------------------------|


       PM PM PM PM PM PM PM PM PM PM PM PM
  Q    S  S  S  S  S  S  S  S  S  S  S  S     H        H
-------------------------------------------|--------------------|
-------------------------------------------|--------------------|
--5----------------------------------------|--------------------|
--5----------------------------------------|--------------------|
-------0--0--0--0--0--0--0--0--0--0--0--0--|-----------5--------|
-------------------------------------------|--3-----------------|


       PM PM PM PM PM PM PM PM PM PM PM PM         PM PM PM PM PM PM PM PM PM PM PM PM
  Q    S  S  S  S  S  S  S  S  S  S  S  S     Q    S  S  S  S  S  S  S  S  S  S  S  S
-------------------------------------------|-------------------------------------------|
-------------------------------------------|-------------------------------------------|
--2----------------------------------------|--4----------------------------------------|
--2----------------------------------------|--4----------------------------------------|
--0----0--0--0--0--0--0--0--0--0--0--0--0--|-------0--0--0--0--0--0--0--0--0--0--0--0--|
-------------------------------------------|-------------------------------------------|


       PM PM PM PM PM PM PM PM
  Q    S  S  S  S  S  S  S  S   Q        H        Q    Q
--------------------------------------|--3-------------------|
--------------------------------------|--3--------3----------|
--5-----------------------------------|--0--------2----------|
--5-----------------------------------|--0--------0----------|
-------0--0--0--0--0--0--0--0---------|-----------0----------|
-------------------------------12\----|--3-------------3~----|


       PM PM PM PM PM PM PM PM PM PM PM PM         PM PM PM PM PM PM PM PM PM PM PM PM
  Q    S  S  S  S  S  S  S  S  S  S  S  S     Q    S  S  S  S  S  S  S  S  S  S  S  S
-------------------------------------------|-------------------------------------------|
-------------------------------------------|-------------------------------------------|
--2----------------------------------------|--4----------------------------------------|
--2----------------------------------------|--4----------------------------------------|
--0----0--0--0--0--0--0--0--0--0--0--0--0--|-------0--0--0--0--0--0--0--0--0--0--0--0--|
-------------------------------------------|-------------------------------------------|


                                                                Pre-chorus
       PM PM PM PM PM PM PM PM
  Q    S  S  S  S  S  S  S  S   Q        H        Q    E  E     Q          H.
--------------------------------------|--3-------------------|--3----------L------------|
--------------------------------------|--3-------------------|--3----------L------------|
--5-----------------------------------|--0--------7----------|--0----------L------------|
--5-----------------------------------|--0--------7----0-----|--0----------L------------|
-------0--0--0--0--0--0--0--0---------|-----------5----------|--------------------------|
-------------------------------12\----|--3-------------3--0--|--3----------L------------|


                               On/off (note 1)
  PM PM PM PM                                                    PM PM PM PM
  E  E  E  E  E  E  E    E     Q               Q    Q    Q       E  E  E  E  E  E  E    E
-----------------3----------|--3---------------3----3----3----|-----------------3----------|
-----------6----------------|--3---------------3----3----3----|-----------6----------------|
-----5--------5-------------|--0---------------0----0----0----|-----5--------5-------------|
--3-----3-------------------|--0---------------0----0----0----|--3-----3-------------------|
----------------------------|---------------------------------|----------------------------|
--------------------5br--L--|--3---------------3----3----3----|--------------------5br--L--|


                      PM PM PM PM PM PM PM PM PM PM PM PM PM PM PM PM
  W                   S  S  S  S  S  S  S  S  S  S  S  S  S  S  S  S     Q    Q    H
--3----------------|--------------------------------3--3--------------|---------------------|
--3----------------|--------------------6--6--6--6--------6--6--6--6--|-------8-------------|
--0----------------|--------5--5--5--5--------------------------------|---------------------|
--0----------------|--3--3--------------------------------------------|--7---------5--------|
-------------------|--------------------------------------------------|--8---------7--------|
--3----------------|--------------------------------------------------|---------------------|


  H        Q    Q       H         H
---------------------|---------------------||
---------------------|---------------------||
--7--------5---------|--9\-----------------||
--7--------5----5----|--7\-----------------||
--5--------3----5----|---------------------||
----------------3----|---------------------||


Rhythm - right

     Intro
                                 PM PM PM PM PM PM PM PM PM PM PM PM
     H         H            Q    S  S  S  S  S  S  S  S  S  S  S  S
E||----------------------|-------------------------------------------|
B||----------------------|-------------------------------------------|
G||----------------------|--2----------------------------------------|
D||----------------------|--2----------------------------------------|
A||----------------------|--0----0--0--0--0--0--0--0--0--0--0--0--0--|
E||-----------17\--------|-------------------------------------------|


       PM PM PM PM PM PM PM PM PM PM PM PM         PM PM PM PM PM PM PM PM
  Q    S  S  S  S  S  S  S  S  S  S  S  S     Q    S  S  S  S  S  S  S  S   Q
-------------------------------------------|--------------------------------------|
-------------------------------------------|--------------------------------------|
--4----------------------------------------|--5-----------------------------------|
--4----------------------------------------|--5-----------------------------------|
-------0--0--0--0--0--0--0--0--0--0--0--0--|-------0--0--0--0--0--0--0--0---------|
-------------------------------------------|-------------------------------12\----|


                              PM PM PM PM PM PM PM PM PM PM PM PM
  H        Q    Q        Q    S  S  S  S  S  S  S  S  S  S  S  S
--3-------------------|-------------------------------------------|
--3--------3----------|-------------------------------------------|
--0--------2----------|--2----------------------------------------|
--0--------0----------|--2----------------------------------------|
-----------0----------|--0----0--0--0--0--0--0--0--0--0--0--0--0--|
--3-------------3~----|-------------------------------------------|


       PM PM PM PM PM PM PM PM PM PM PM PM         PM PM PM PM PM PM PM PM
  Q    S  S  S  S  S  S  S  S  S  S  S  S     Q    S  S  S  S  S  S  S  S   Q
-------------------------------------------|--------------------------------------|
-------------------------------------------|--------------------------------------|
--4----------------------------------------|--5-----------------------------------|
--4----------------------------------------|--5-----------------------------------|
-------0--0--0--0--0--0--0--0--0--0--0--0--|-------0--0--0--0--0--0--0--0---------|
-------------------------------------------|-------------------------------12\----|


                                           Verse 1
                                                   PM PM PM PM PM PM PM PM PM PM PM PM
  S  S S  S S  S S  S S  S S  S S  S E     Q       S  S  S  S  S  S  S  S  S  S  S  S
----------------------------------------|----------------------------------------------|
--1p-0-1p-0-1p-0------------------------|----------------------------------------------|
-----------------2p-0-2p-0--------------|--2-------------------------------------------|
---------------------------2p-0---------|--2-------------------------------------------|
--------------------------------3p-0----|--0-------0--0--0--0--0--0--0--0--0--0--0--0--|
-------------------------------------3--|----------------------------------------------|


       PM PM PM PM PM PM PM PM PM PM PM PM         PM PM PM PM PM PM PM PM
  Q    S  S  S  S  S  S  S  S  S  S  S  S     Q    S  S  S  S  S  S  S  S   Q
-------------------------------------------|--------------------------------------|
-------------------------------------------|--------------------------------------|
--4----------------------------------------|--5-----------------------------------|
--4----------------------------------------|--5-----------------------------------|
-------0--0--0--0--0--0--0--0--0--0--0--0--|-------0--0--0--0--0--0--0--0---------|
-------------------------------------------|-------------------------------12\----|


                              PM PM PM PM PM PM PM PM PM PM PM PM
  H        Q    Q        Q    S  S  S  S  S  S  S  S  S  S  S  S
--3-------------------|-------------------------------------------|
--3--------3----------|-------------------------------------------|
--0--------2----------|--2----------------------------------------|
--0--------0----------|--2----------------------------------------|
-----------0----------|--0----0--0--0--0--0--0--0--0--0--0--0--0--|
--3-------------3~----|-------------------------------------------|


       PM PM PM PM PM PM PM PM PM PM PM PM         PM PM PM PM PM PM PM PM
  Q    S  S  S  S  S  S  S  S  S  S  S  S     Q    S  S  S  S  S  S  S  S   Q
-------------------------------------------|--------------------------------------|
-------------------------------------------|--------------------------------------|
--4----------------------------------------|--5-----------------------------------|
--4----------------------------------------|--5-----------------------------------|
-------0--0--0--0--0--0--0--0--0--0--0--0--|-------0--0--0--0--0--0--0--0---------|
-------------------------------------------|-------------------------------12\----|


                            PM PM PM PM PM PM PM PM PM PM PM PM
  H        H           Q    S  S  S  S  S  S  S  S  S  S  S  S
--------------------|-------------------------------------------|
--------------------|-------------------------------------------|
--------------------|--2----------------------------------------|
--------------------|--2----------------------------------------|
-----------5--------|--0----0--0--0--0--0--0--0--0--0--0--0--0--|
--3-----------------|-------------------------------------------|


       PM PM PM PM PM PM PM PM PM PM PM PM         PM PM PM PM PM PM PM PM
  Q    S  S  S  S  S  S  S  S  S  S  S  S     Q    S  S  S  S  S  S  S  S   Q
-------------------------------------------|--------------------------------------|
-------------------------------------------|--------------------------------------|
--4----------------------------------------|--5-----------------------------------|
--4----------------------------------------|--5-----------------------------------|
-------0--0--0--0--0--0--0--0--0--0--0--0--|-------0--0--0--0--0--0--0--0---------|
-------------------------------------------|-------------------------------12\----|


                              PM PM PM PM PM PM PM PM PM PM PM PM
  H        Q    Q        Q    S  S  S  S  S  S  S  S  S  S  S  S
--3-------------------|-------------------------------------------|
--3--------3----------|-------------------------------------------|
--0--------2----------|--2----------------------------------------|
--0--------0----------|--2----------------------------------------|
-----------0----------|--0----0--0--0--0--0--0--0--0--0--0--0--0--|
--3-------------3~----|-------------------------------------------|


       PM PM PM PM PM PM PM PM PM PM PM PM         PM PM PM PM PM PM PM PM
  Q    S  S  S  S  S  S  S  S  S  S  S  S     Q    S  S  S  S  S  S  S  S   Q
-------------------------------------------|--------------------------------------|
-------------------------------------------|--------------------------------------|
--4----------------------------------------|--5-----------------------------------|
--4----------------------------------------|--5-----------------------------------|
-------0--0--0--0--0--0--0--0--0--0--0--0--|-------0--0--0--0--0--0--0--0---------|
-------------------------------------------|-------------------------------12\----|


                       Pre-chorus
                                                  PM PM PM PM
  H        H           Q          H.              E  E  E  E  E  E  E    E     Q    H.
--3-----------------|-------------3------------|-----------------3----------|-------3------------|
--3-----------------|-------------3------------|-----------6----------------|-------3------------|
--0--------7--------|--0-----------------------|-----5--------5-------------|--0-----------------|
--0--------7--------|--0-----------------------|--3-----3-------------------|--0-----------------|
-----------5--------|--------------------------|----------------------------|--------------------|
--3-----------------|--3-----------------------|--------------------5br--L--|--3-----------------|


  PM PM                                             PM PM PM PM PM PM PM PM PM PM PM PM
  E  E  E  E  E  E  E    E     Q    H.              S  S  S  S  S  S  S  S  S  S  S  S  Q
-----------3--L--3----------|-------3------------|--------------------------------3--3-------|
--------6--6--L-------------|-------3------------|--------------------6--6--6--6--------6----|
-----5----------------------|--0-----------------|--------5--5--5--5-------------------------|
--3-------------------------|--0-----------------|--3--3-------------------------------------|
----------------------------|--------------------|-------------------------------------------|
--------------------5br--L--|--3-----------------|-------------------------------------------|


                                                   PM PM PM PM PM PM PM PM PM PM PM PM
  Q    Q    H           H        Q    Q       Q    S  S  S  S  S  S  S  S  S  S  S  S
---------------------|---------------------|-------------------------------------------|
-------8-------------|---------------------|-------------------------------------------|
---------------------|--7--------5---------|--2----------------------------------------|
--7---------5--------|--7--------5----5----|--2----------------------------------------|
--8---------7--------|--5--------3----5----|--0----0--0--0--0--0--0--0--0--0--0--0--0--|
---------------------|----------------3----|-------------------------------------------|


       PM PM PM PM PM PM PM PM PM PM PM PM         PM PM PM PM PM PM PM PM
  Q    S  S  S  S  S  S  S  S  S  S  S  S     Q    S  S  S  S  S  S  S  S   Q
-------------------------------------------|--------------------------------------|
-------------------------------------------|--------------------------------------|
--4----------------------------------------|--5-----------------------------------|
--4----------------------------------------|--5-----------------------------------|
-------0--0--0--0--0--0--0--0--0--0--0--0--|-------0--0--0--0--0--0--0--0---------|
-------------------------------------------|-------------------------------12\----|


                              PM PM PM PM PM PM PM PM PM PM PM PM
  H        Q    Q        Q    S  S  S  S  S  S  S  S  S  S  S  S
--3-------------------|-------------------------------------------|
--3--------3----------|-------------------------------------------|
--0--------2----------|--2----------------------------------------|
--0--------0----------|--2----------------------------------------|
-----------0----------|--0----0--0--0--0--0--0--0--0--0--0--0--0--|
--3-------------3~----|-------------------------------------------|


       PM PM PM PM PM PM PM PM PM PM PM PM         PM PM PM PM PM PM PM PM
  Q    S  S  S  S  S  S  S  S  S  S  S  S     Q    S  S  S  S  S  S  S  S   Q
-------------------------------------------|--------------------------------------|
-------------------------------------------|--------------------------------------|
--4----------------------------------------|--5-----------------------------------|
--4----------------------------------------|--5-----------------------------------|
-------0--0--0--0--0--0--0--0--0--0--0--0--|-------0--0--0--0--0--0--0--0---------|
-------------------------------------------|-------------------------------12\----|


   T        T        T        T        T        T        T        T
   |--3--|  |--3--|  |--3--|  |--3--|  |--3--|  |--3--|  |--3--|  |--3--|
   S  S  S  S  S  S  S  S  S  S  S  S  S  S  S  S  S  S  S  S  S  S  S  S
--------------------------------------------------------------------------|
--------------------------------------------------------------------------|
--12p-0h-5-12p-0h-5-12p-0h-5-12p-0h-5-12p-0h-4-12p-0h-4-12p-0h-2-12p-0h-2-|
--------------------------------------------------------------------------|
--------------------------------------------------------------------------|
--------------------------------------------------------------------------|


  Verse 2
          PM PM PM PM PM PM PM PM PM PM PM PM         PM PM PM PM PM PM PM PM PM PM PM PM
  Q       S  S  S  S  S  S  S  S  S  S  S  S     Q    S  S  S  S  S  S  S  S  S  S  S  S
----------------------------------------------|-------------------------------------------|
----------------------------------------------|-------------------------------------------|
--2-------------------------------------------|--4----------------------------------------|
--2-------------------------------------------|--4----------------------------------------|
--0-------0--0--0--0--0--0--0--0--0--0--0--0--|-------0--0--0--0--0--0--0--0--0--0--0--0--|
----------------------------------------------|-------------------------------------------|


       PM PM PM PM PM PM PM PM
  Q    S  S  S  S  S  S  S  S   Q        H        Q    Q
--------------------------------------|--3-------------------|
--------------------------------------|--3--------3----------|
--5-----------------------------------|--0--------2----------|
--5-----------------------------------|--0--------0----------|
-------0--0--0--0--0--0--0--0---------|-----------0----------|
-------------------------------12\----|--3-------------3~----|


       PM PM PM PM PM PM PM PM PM PM PM PM         PM PM PM PM PM PM PM PM PM PM PM PM
  Q    S  S  S  S  S  S  S  S  S  S  S  S     Q    S  S  S  S  S  S  S  S  S  S  S  S
-------------------------------------------|-------------------------------------------|
-------------------------------------------|-------------------------------------------|
--2----------------------------------------|--4----------------------------------------|
--2----------------------------------------|--4----------------------------------------|
--0----0--0--0--0--0--0--0--0--0--0--0--0--|-------0--0--0--0--0--0--0--0--0--0--0--0--|
-------------------------------------------|-------------------------------------------|


       PM PM PM PM PM PM PM PM
  Q    S  S  S  S  S  S  S  S   Q        H        H
--------------------------------------|--------------------|
--------------------------------------|--------------------|
--5-----------------------------------|--------------------|
--5-----------------------------------|--------------------|
-------0--0--0--0--0--0--0--0---------|-----------5--------|
-------------------------------12\----|--3-----------------|


       PM PM PM PM PM PM PM PM PM PM PM PM         PM PM PM PM PM PM PM PM PM PM PM PM
  Q    S  S  S  S  S  S  S  S  S  S  S  S     Q    S  S  S  S  S  S  S  S  S  S  S  S
-------------------------------------------|-------------------------------------------|
-------------------------------------------|-------------------------------------------|
--2----------------------------------------|--4----------------------------------------|
--2----------------------------------------|--4----------------------------------------|
--0----0--0--0--0--0--0--0--0--0--0--0--0--|-------0--0--0--0--0--0--0--0--0--0--0--0--|
-------------------------------------------|-------------------------------------------|


       PM PM PM PM PM PM PM PM
  Q    S  S  S  S  S  S  S  S   Q        H        Q    Q
--------------------------------------|--3-------------------|
--------------------------------------|--3--------3----------|
--5-----------------------------------|--0--------2----------|
--5-----------------------------------|--0--------0----------|
-------0--0--0--0--0--0--0--0---------|-----------0----------|
-------------------------------12\----|--3-------------3~----|


       PM PM PM PM PM PM PM PM PM PM PM PM         PM PM PM PM PM PM PM PM PM PM PM PM
  Q    S  S  S  S  S  S  S  S  S  S  S  S     Q    S  S  S  S  S  S  S  S  S  S  S  S
-------------------------------------------|-------------------------------------------|
-------------------------------------------|-------------------------------------------|
--2----------------------------------------|--4----------------------------------------|
--2----------------------------------------|--4----------------------------------------|
--0----0--0--0--0--0--0--0--0--0--0--0--0--|-------0--0--0--0--0--0--0--0--0--0--0--0--|
-------------------------------------------|-------------------------------------------|


                                                              Pre-chorus
       PM PM PM PM PM PM PM PM
  Q    S  S  S  S  S  S  S  S   Q        H        H           Q          H.
--------------------------------------|--3-----------------|-------------3------------|
--------------------------------------|--3--------3--------|-------------3------------|
--5-----------------------------------|--0--------2--------|--0-----------------------|
--5-----------------------------------|--0--------0--------|--0-----------------------|
-------0--0--0--0--0--0--0--0---------|-----------0--------|--------------------------|
-------------------------------12\----|--3-----------------|--3-----------------------|


  PM PM PM PM                                       PM PM PM PM
  E  E  E  E  E  E  E    E     Q    H.              E  E  E  E  E  E  E    E     Q    H.
-----------------3----------|-------3------------|-----------------3----------|-------3---------|
-----------6----------------|-------3------------|-----------6----------------|-------3---------|
-----5--------5-------------|--0-----------------|-----5--------5-------------|--0--------------|
--3-----3-------------------|--0-----------------|--3-----3-------------------|--0--------------|
----------------------------|--------------------|----------------------------|-----------------|
--------------------5br--L--|--3-----------------|--------------------5br--L--|--3-------------|


  PM PM PM PM PM PM PM PM PM PM PM PM
  S  S  S  S  S  S  S  S  S  S  S  S  Q       Q    Q    H           H        Q    Q
--------------------------------3--3-------|---------------------|---------------------|
--------------------6--6--6--6--------6----|-------8-------------|---------------------|
--------5--5--5--5-------------------------|---------------------|--7--------5---------|
--3--3-------------------------------------|--7---------5--------|--7--------5----5----|
-------------------------------------------|--8---------7--------|--5--------3----5----|
-------------------------------------------|---------------------|-----------3----3----|


  Chorus
  PM     PM                                            PM PM
  E      E  E  E  Q     E  E     H        Q    Q       E  E  E  E  Q     E  E
---------------------------3--|--L------------------|-----------------------3--|
------------8--7--L~-------3--|--L------------------|--------8--7--L~-------3--|
------------7--7--L~-------0--|--L--------5---------|--------7--7--L~-------0--|
------------7--7--L~-------0--|--L--------5----5----|--------7--7--L~-------0--|
--0------0--------------0-----|-----------3----5----|--0--0--------------0-----|
---------------------------3--|--L-------------3----|-----------------------3--|


                        PM PM
  H        Q    Q       E  E  E  E  Q     E  E     H        Q    E  E     H        H
--L------------------|-----------------------3--|--L-------------------|--------------------|
--L------------------|--------8--7--L~-------3--|--L-------------------|--------------------|
--L--------5---------|--------7--7--L~-------0--|--L--------5----------|--------------------|
--L--------5----5----|--------7--7--L~-------0--|--L--------5----5-----|--------------------|
-----------3----5----|--0--0--------------0-----|-----------3----5-----|--------------------|
--L-------------3----|-----------------------3--|--L-------------3--0--|--5--------3--------|


                           Bridge
  Q    E  E  Q    E  E     W                   W                   W
------------------------|-------------------|-------------------|-------------------|
------------------------|-------------------|-------------------|-------------------|
------------------------|--7----------------|--L----------------|-------------------|
-------------3----L-----|--7----------------|--L----------------|-------------------|
-------------3----L-----|--5----------------|--L----------------|-------------------|
--2----L--0--1----L--0--|-------------------|-------------------|-------------------|

  m.87                    Chorus 3
                                   PM
  Q    Q    Q    E  E     E        E  E  E  Q     E  E     Q    E  E  E  E  E  E
-----------------------|--------------------------------|-------------------------|
-----------------------|--------------8--7--L~----------|-------------------------|
------------7----5-----|--------------7--7--L~-------5--|--L----L--7--L-----------|
--7----5----7----5--5--|--------------7--7--L~-------5--|--L----L--7--L-----------|
--8----7----5----3--5--|--0--------0--------------0--3--|--L----L--5--L--5--6--7--|
-----------------3--3--|--------------------------------|-------------------------|


     PM                                                   PM
  E  E  E  E  Q     E  E     Q    E  E  Q    E   E     E  E  E  E  Q     E  E
--------------------------|----------3--3-----------|--------------------------|
--------8--7--L~----------|----------3--3-----------|--------8--7--L~----------|
--------7--7--L~-------5--|--L----L--0--0-----------|--------7--7--L~-------5--|
--------7--7--L~-------5--|--L----L--0--0-----------|--------7--7--L~-------5--|
--0--0--------------0--3--|--L----L----------3p--0--|--0--0--------------0--3--|
--------------------------|----------3--3-----------|--------------------------|


                                                             pick scrape
                               PM
  Q    E  E  E  E  E  E     E  E  E  E  Q     E  E     Q     H           Q
-------------------------|--------------------------|--------------------------|
-------------------------|--------8--7--L~----------|--------------------------|
--L----L--7--L-----------|--------7--7--L~-------5--|--L-----x\----------------|
--L----L--7--L-----------|--------7--7--L~-------5--|--L-----x\----------------|
--L----L--5--L--5--6--7--|--0--0--------------0--3--|--L-----------------------|
-------------------------|--------------------------|-------------------12\----|


  Guitar Solo
  Q           H.              E  E  E  E  Q    Q        Q    H.
--------------3------------|-------------------------|-------3------------|
--------------3------------|-------------------------|-------3------------|
---------------------------|-----2--------2----2/----|--------------------|
---------------------------|-----3--------3----3/----|--------------------|
--5------------------------|-------------------------|--5-----------------|
--3------------------------|--1--------1-------------|--3-----------------|


  E  E  E  E  Q    Q        Q    H.              E  E  E  E  Q    Q       Q    H.
-------------------------|-------3------------|-----1------------------|-------3------------|
-------------------------|-------3------------|-----1------------------|-------3------------|
-----2--------2----2/----|--------------------|--------------2----2----|--------------------|
-----3--------3----3/----|--------------------|--------------3----3----|--------------------|
-------------------------|--5-----------------|------------------------|--5-----------------|
--1--------1-------------|--3-----------------|--1--------1------------|--3-----------------|


  E  E  E  E  Q    E  E     Q    H.              E  E  E  E  Q    E  E     Q    H.
--------------1-------1--|-------3------------|-------------------------|-------3------------|
--------------1-------1--|-------3------------|-------------------------|-------3------------|
-----2-------------------|--------------------|-----2--------2----2--2--|--------------------|
-----3-------------------|--------------------|-----3--------3----3--3--|--------------------|
-------------------------|--5-----------------|-------------------------|--5-----------------|
--1--------1-------1-----|--3-----------------|--1--------1-------------|--3-----------------|


  E  E  E  E  Q    E  E     Q    H.              E  E  E  E  Q    E  E     Q    H.
-------------------------|-------3------------|-------------------------|-------3------------|
-------------------------|-------3------------|-------------------------|-------3------------|
-----2--------2-------2--|--------------------|-----2--------2----2--2--|--------------------|
-----3--------3-------3--|--------------------|-----3--------3----3--3--|--------------------|
-------------------------|--5-----------------|-------------------------|--5-----------------|
--1--------1-------1-----|--3-----------------|--1--------1-------------|--3-----------------|


                                PM
  E  E  E  E  Q    E   E     E  E  E  E  Q      E   E     Q    E  S  S S  S S  S S  S E
-----1--------------------|----------------------------|---------------------------------|
-----1--------------------|--------8--7--L~------------|----------1p-0-1p-0--------------|
--------------2-----------|--------7--7--L~----(0)--5--|--L----L------------2p-0---------|
--------------3-----------|--------7--7--L~----(0)--5--|--L----L-----------------2p-0----|
--------------------------|--0--0-------------------3--|--L----L----------------------3--|
--1--------1-------3b--L--|----------------------------|---------------------------------|


     PM                                                             PM
  E  E  E  E  E   E  E  E     E  E   S S S  S S  S S S S S E     E  E  E  E  E   E   E   E
------------------------3--|--L--------5----------------------|-----------------------------|
--------8--7--L~--7-----3--|--L------5---8p-5-6p-5---5--------|--------8--7--L~--7----------|
--------7--7--L~--7-----0--|--L--7b----------------8---8-7-5--|--------7--7--L~--7--(0)--5--|
--------7--7--L~--7-----0--|--L-------------------------------|--------7--7--L~--7--(0)--5--|
--0--0---------------0-----|----------------------------------|--0--0--------------------3--|
------------------------3--|--L-------------------------------|-----------------------------|


                                        PM
  Q       E   E   E     E   Q        E  E  E  E  E   E   E   E     H         H
-------------17-------------------|--------------------------3--|--L-------------------|
--------/20------20br---L---L~----|--------8--7--L~--7-------3--|--L-------------------|
--L/------------------------------|--------7--7--L~--7--(0)--0--|--L-------------------|
--L/------------------------------|--------7--7--L~--7--(0)--0--|--L-------------------|
--L/------------------------------|--0--0-----------------------|----------------------|
----------------------------------|--------------------------3--|--L--------19\--------|


  Verse 3
          PM PM PM PM PM PM PM PM PM PM PM PM         PM PM PM PM PM PM PM PM PM PM PM PM
  Q       S  S  S  S  S  S  S  S  S  S  S  S     Q    S  S  S  S  S  S  S  S  S  S  S  S
----------------------------------------------|-------------------------------------------|
----------------------------------------------|-------------------------------------------|
--2-------------------------------------------|--4----------------------------------------|
--2-------------------------------------------|--4----------------------------------------|
--0-------0--0--0--0--0--0--0--0--0--0--0--0--|-------0--0--0--0--0--0--0--0--0--0--0--0--|
----------------------------------------------|-------------------------------------------|


       PM PM PM PM PM PM PM PM
  Q    S  S  S  S  S  S  S  S   Q        H        Q    Q
--------------------------------------|--3-------------------|
--------------------------------------|--3--------3----------|
--5-----------------------------------|--0--------2----------|
--5-----------------------------------|--0--------0----------|
-------0--0--0--0--0--0--0--0---------|-----------0----------|
-------------------------------12\----|--3-------------3~----|


       PM PM PM PM PM PM PM PM PM PM PM PM         PM PM PM PM PM PM PM PM PM PM PM PM
  Q    S  S  S  S  S  S  S  S  S  S  S  S     Q    S  S  S  S  S  S  S  S  S  S  S  S
-------------------------------------------|-------------------------------------------|
-------------------------------------------|-------------------------------------------|
--2----------------------------------------|--4----------------------------------------|
--2----------------------------------------|--4----------------------------------------|
--0----0--0--0--0--0--0--0--0--0--0--0--0--|-------0--0--0--0--0--0--0--0--0--0--0--0--|
-------------------------------------------|-------------------------------------------|


       PM PM PM PM PM PM PM PM
  Q    S  S  S  S  S  S  S  S  E   S  S
----------------------------------20-17-|
----------------------------------------|
--5-------------------------------------|
--5-------------------------------------|
-------0--0--0--0--0--0--0--0--0--------|
----------------------------------------|


   |--3--|  |--3--|  |--3--|  |--3--|  |--3--|  |--3--|
   S  S  S  S  S  S  S  S  S  S  S  S  S  S  S  S  S  S  Q
--20-17----17--------------------------------------------------|
--------20----20-17-20-17----17--------------------------------|
--------------------------19----19-17----17--------------------|
--------------------------------------19----19-17-19-17--------|
--------------------------------------------------------19\----|
---------------------------------------------------------------|


       PM PM PM PM PM PM PM PM PM PM PM PM         PM PM PM PM PM PM PM PM PM PM PM PM
  Q    S  S  S  S  S  S  S  S  S  S  S  S     Q    S  S  S  S  S  S  S  S  S  S  S  S
-------------------------------------------|-------------------------------------------|
-------------------------------------------|-------------------------------------------|
--2----------------------------------------|--4----------------------------------------|
--2----------------------------------------|--4----------------------------------------|
--0----0--0--0--0--0--0--0--0--0--0--0--0--|-------0--0--0--0--0--0--0--0--0--0--0--0--|
-------------------------------------------|-------------------------------------------|


       PM PM PM PM PM PM PM PM
  Q    S  S  S  S  S  S  S  S   Q        H        Q    Q
--------------------------------------|--3-------------------|
--------------------------------------|--3--------3----------|
--5-----------------------------------|--0--------2----------|
--5-----------------------------------|--0--------0----------|
-------0--0--0--0--0--0--0--0---------|-----------0----------|
-------------------------------12\----|--3-------------3~----|


       PM PM PM PM PM PM PM PM PM PM PM PM         PM PM PM PM PM PM PM PM PM PM PM PM
  Q    S  S  S  S  S  S  S  S  S  S  S  S     Q    S  S  S  S  S  S  S  S  S  S  S  S
-------------------------------------------|-------------------------------------------|
-------------------------------------------|-------------------------------------------|
--2----------------------------------------|--4----------------------------------------|
--2----------------------------------------|--4----------------------------------------|
--0----0--0--0--0--0--0--0--0--0--0--0--0--|-------0--0--0--0--0--0--0--0--0--0--0--0--|
-------------------------------------------|-------------------------------------------|


       PM PM PM PM PM PM PM PM PM PM PM PM
  Q    S  S  S  S  S  S  S  S  S  S  S  S     H        H
-------------------------------------------|--------------------|
-------------------------------------------|--------------------|
--5----------------------------------------|--------------------|
--5----------------------------------------|--------------------|
-------0--0--0--0--0--0--0--0--0--0--0--0--|-----------5--------|
-------------------------------------------|--3-----------------|


       PM PM PM PM PM PM PM PM PM PM PM PM         PM PM PM PM PM PM PM PM PM PM PM PM
  Q    S  S  S  S  S  S  S  S  S  S  S  S     Q    S  S  S  S  S  S  S  S  S  S  S  S
-------------------------------------------|-------------------------------------------|
-------------------------------------------|-------------------------------------------|
--2----------------------------------------|--4----------------------------------------|
--2----------------------------------------|--4----------------------------------------|
--0----0--0--0--0--0--0--0--0--0--0--0--0--|-------0--0--0--0--0--0--0--0--0--0--0--0--|
-------------------------------------------|-------------------------------------------|


       PM PM PM PM PM PM PM PM
  Q    S  S  S  S  S  S  S  S   Q        H        Q    Q
--------------------------------------|--3-------------------|
--------------------------------------|--3--------3----------|
--5-----------------------------------|--0--------2----------|
--5-----------------------------------|--0--------0----------|
-------0--0--0--0--0--0--0--0---------|-----------0----------|
-------------------------------12\----|--3-------------3~----|


       PM PM PM PM PM PM PM PM PM PM PM PM         PM PM PM PM PM PM PM PM PM PM PM PM
  Q    S  S  S  S  S  S  S  S  S  S  S  S     Q    S  S  S  S  S  S  S  S  S  S  S  S
-------------------------------------------|-------------------------------------------|
-------------------------------------------|-------------------------------------------|
--2----------------------------------------|--4----------------------------------------|
--2----------------------------------------|--4----------------------------------------|
--0----0--0--0--0--0--0--0--0--0--0--0--0--|-------0--0--0--0--0--0--0--0--0--0--0--0--|
-------------------------------------------|-------------------------------------------|


                                                                Pre-chorus
       PM PM PM PM PM PM PM PM
  Q    S  S  S  S  S  S  S  S   Q        H        Q    E  E     Q          H.
--------------------------------------|--3-------------------|--3----------L------------|
--------------------------------------|--3-------------------|--3----------L------------|
--5-----------------------------------|--0--------7----------|--0----------L------------|
--5-----------------------------------|--0--------7----0-----|--0----------L------------|
-------0--0--0--0--0--0--0--0---------|-----------5----------|--------------------------|
-------------------------------12\----|--3-------------3--0--|--3----------L------------|


                               On/off (note 1)
  PM PM PM PM                                                    PM PM PM PM
  E  E  E  E  E  E  E    E     Q               Q    Q    Q       E  E  E  E  E  E  E    E
-----------------3----------|--3---------------3----3----3----|-----------------3----------|
-----------6----------------|--3---------------3----3----3----|-----------6----------------|
-----5--------5-------------|--0---------------0----0----0----|-----5--------5-------------|
--3-----3-------------------|--0---------------0----0----0----|--3-----3-------------------|
----------------------------|---------------------------------|----------------------------|
--------------------5br--L--|--3---------------3----3----3----|--------------------5br--L--|


                      PM PM PM PM PM PM PM PM PM PM PM PM PM PM PM PM
  W                   S  S  S  S  S  S  S  S  S  S  S  S  S  S  S  S     Q    Q    H
--3----------------|--------------------------------3--3--------------|---------------------|
--3----------------|--------------------6--6--6--6--------6--6--6--6--|-------8-------------|
--0----------------|--------5--5--5--5--------------------------------|---------------------|
--0----------------|--3--3--------------------------------------------|--7---------5--------|
-------------------|--------------------------------------------------|--8---------7--------|
--3----------------|--------------------------------------------------|---------------------|


  H        Q    Q       H         H
---------------------|---------------------||
---------------------|---------------------||
--7--------5---------|--9\-----------------||
--7--------5----5----|--7\-----------------||
--5--------3----5----|---------------------||
----------------3----|---------------------||


Lead

  Verse 1 - m.15
  W                   W                    H        H           W
-------------------|-------------------|---------------------|-------------------|
-------------------|-------------------|---------------------|-------------------|
-------------------|-------------------|--12--------7--------|-------------------|
-------------------|-------------------|--12--------7--------|-------------------|
-------------------|-------------------|---------------------|-------------------|
-------------------|-------------------|---------------------|-------------------|


   Verse 2 - m.49
   H             H           W                   W                   W
--------------------------|-------------------|-------------------|-------------------|
--------------------------|-------------------|-------------------|-------------------|
--12-------------7--------|-------------------|-------------------|-------------------|
--12-------------7--------|-------------------|-------------------|-------------------|
--------------------------|-------------------|-------------------|-------------------|
--------------------------|-------------------|-------------------|-------------------|


  Chorus 3 - m.93                                              Guitar Solo
  W                   W                   W                    Q           H           S  E    S
-------------------|-------------------|-------------------|--------------------------15------15-|
-------------------|-------------------|-------------------|--18b---------18b~-----------18b-----|
-------------------|-------------------|-------------------|-------------------------------------|
-------------------|-------------------|-------------------|-------------------------------------|
-------------------|-------------------|-------------------|-------------------------------------|
-------------------|-------------------|-------------------|-------------------------------------|


   S   S  S   S  E   S   S  S  S  S   S  S   S  S   S     E    E   E   E    H
----------------15------15----------------------------|---------------17b---L--------|
--18p-15-----15-----18b-------15----------------------|------------------------------|
---------17b---------------18----18p-15-17p-15--------|--17b--15---L-----------------|
-----------------------------------------------17p-15-|------------------------------|
------------------------------------------------------|------------------------------|
------------------------------------------------------|------------------------------|


                                          hammer w/pick edge, bend instead of bar
   tr                                     \1/
   H             Q      E    E      Q     H.
--17(15)------------------------|------------------------------------------------|
----------------18-----(0)--18--|------------------------------------------------|
----------------------(17)--17--|--17----17(20)----------------------------------|
--------------------------------|------------------------------------------------|
--------------------------------|------------------------------------------------|
--------------------------------|------------------------------------------------|


                     tr         \1/
   H         E   E   Q          W                      H          H
-----------------------------|----------------------|-----------------------|
-----------------------------|----------------------|-----------------------|
---L---------L---x\--0(3)----|--0(3)----------------|--L--------------------|
-----------------x\----------|----------------------|-----------------------|
-----------------------------|----------------------|-----------/15~--------|
-----------------------------|----------------------|-----------------------|


          PM PM PM PM PM                PM
   S   S  S  S  S  S  S  S S  S  S   S  S  S  S   S
----------------------------------------------------|
------------------------------------------15-15h-18-|
-----------------------------15-15h-17-17-----------|
---------------------15-----------------------------|
------------15-15-17----17--------------------------|
--15h-18-18-----------------------------------------|


   S  S  S   S  S    S  E   E    S  S  S   S   S  S     Q      H          E    E
--15----15h-18-20br--L-18---L~--15----15h-18p-15----|------------------------------|
-----15----------------------------18------------18-|--20b-----L~--------(0)--17b--|
----------------------------------------------------|--------------------(0)-------|
----------------------------------------------------|------------------------------|
----------------------------------------------------|------------------------------|
----------------------------------------------------|------------------------------|


                                  PM PM            PM PM        PM PM       PMPM       PMPM
   E.   S    E   E    Q       E   S  S      S   S  S  S  S   S  S  S  S  S  S S  S  S  S S
----------------------------------------|---------------------------------------------------|
---L---17br--L--17b--17b~----17b--0--0--|--11p-10-------11p-10-------10p-9-------9p-8-------|
----------------------------------------|---------12-10--------12-10-------11-9-------10-8--|
----------------------------------------|---------------------------------------------------|
----------------------------------------|---------------------------------------------------|
----------------------------------------|---------------------------------------------------|


        PMPM      PM PM      PM PM
  S  S  S S  S  S S  S  S  S S  S  S  S E      E   S S S  S S  S E     S S S S  E
--------------------------------------------|--------3-----------------------------|
--9p-8-------8p-7-------7p-6-------6p-5-----|------3---6p-3----3-------------------|
-------10-8-------9--7-------8--6-------6\--|--5b-----------5b---5pbr--3---5-3h-4--|
--------------------------------------------|----------------------------5---------|
--------------------------------------------|--------------------------------------|
--------------------------------------------|--------------------------------------|


   S   S  S   S  S   S  S  S  S  E.      Q        W
------15---------------------------------------|-------------------|
---------18p-15-----15----------17brb----L~----|-------------------|
--17b-----------17b----17-15-17----------L~----|-------------------|
-----------------------------------------------|-------------------|
-----------------------------------------------|-------------------|
-----------------------------------------------|-------------------|


  Q    E  S  S S  S S  S S  S E     W                   E  E   S S S  S S  S S S S S E
---------------------------------|-------------------|-----------5----------------------|
----------1p-0-1p-0--------------|-------------------|---------5---8p-5-6p-5---5--------|
--------------------2p-0---------|-------------------|-----7b----------------8---8-7-5--|
-------------------------2p-0----|-------------------|----------------------------------|
------------------------------3--|-------------------|----------------------------------|
---------------------------------|-------------------|----------------------------------|


  W                   Q         E   E   E     E   Q        W                   W
-------------------|---------------17-------------------|-------------------|-------------------|
-------------------|-------/15g20------20br---L---L~----|-------------------|-------------------|
-------------------|------------------------------------|-------------------|-------------------|
-------------------|------------------------------------|-------------------|-------------------|
-------------------|------------------------------------|-------------------|-------------------|
-------------------|------------------------------------|-------------------|-------------------|


     Verse 3 - m.135
     NH             NH   NH
     Q.             E    H            W                   W                   W
-----------------------------------|-------------------|-------------------|------|
-----------------------<>7~----------|-------------------|-------------------|----|
--<>12------------<>7------------------|-------------------|-------------------|--|
--<>12-------------------------------|-------------------|-------------------|----|
-----------------------------------|-------------------|-------------------|------|
-----------------------------------|-------------------|-------------------|------|


Clean - left

  Bridge - m.74
                                              |---3--|   |---3---|  |---3--|
  H             Q    E  E     E.   S   E  E   S   S  S   S   S   S  S   S  S  E
---------------------------|-----------------------------------------------------|
---------------------------|--8---12s-10------x----------------------------------|
------------------------9--|--7-----------7--12p-10------------------------------|
---------------------------|------------------------12p-10h-12p-10---------------|
---------------------------|---------------------------------------12s-10s-8-12--|
---------------------------|-----------------------------------------------------|


      PM
                                                    |---3---|  |---3---|  |---3---|
  E.  S  S S  E  E.   S E   E      E.   S   E   E   S   S   S  S   S   S  S   S   S  E
-------------------------------|--10-----------------------------------------------------|
--7------7-8-10--8------8--10--|-------12p-10------10------10---------10-----------------|
--7--------------9-------------|---------------12--10h-12p-10---------10-----------------|
------7--------------10--------|------------------------------10h-12p-10-10h-12p-10------|
-------------------------------|----------------------------------------------------12\--|
-------------------------------|---------------------------------------------------------|


        |--3--| |--3--| |--3--|                        |---3--|  |---3---|  |---3---|
  E.  S S  S  S S  S  S S  S  S E  Q       E.  S Q     S  S   S  S   S   S  S   S   S  E
----------------------------------------|--7---7-------------------------------------------|
----------------------------------------|--8---8------10-----------------------------------|
--------7h-9p-7-7-----------------------|----------------12p-10----------------------------|
--------7-------7h-9p-7-5h-7p-5---------|-----------------------10h-12p-10-10h-12p-10------|
--9---9-------------------------7--L----|---------------------------------------------12\--|
----------------------------------------|--------------------------------------------------|


                                                |---3--|  |---3---|  |---3---|
  E  E  S S  E  Q    S  S E     S S S S S S E   S  S   S  S   S   S  S   S   S  E
-----------------------------|------------------------------------------------------|
--------7-8-10--8----8s-6----|-----------------10-----------------------------------|
-----7-----------------------|------7-------7-----12p-10----------------------------|
-----------------------------|----5-------5--------------10h-12p-10-10h-12p-10------|
--9--------------------------|-------------------------------------------------12\--|
-----------------------------|--7-----7-L-------------------------------------------|


                                                       |---3--|  |---3---|  |---3---|
  S S S S S  S   E  S S  S  S E   E      Q     E   E   S  S   S  S   S   S  S   S   S  E
-------------------------------------|-----------------------------------------------------|
--7-------7h-8s-10--8---------8--10--|--12----10------10-----------------------------------|
----7---7-7h-9s-11----9--------------|------------12-----12p-10----------------------------|
------7-----------------10-----------|--12----------------------10h-12p-10-10h-12p-10------|
--9------------------------10--------|------------------------------------------------12\--|
--------------------8----------------|-----------------------------------------------------|


       |--3--| |--3--|           |--3--|                      |---3--|  |---3---|  |---3---|
  Q    S  S  S S  S  S T T  E  S S  S  S E      Q     E   E   S  S   S  S   S   S  S   S   S  E
--------------------------------------------|-----------------------------------------------------|
-------7------------------------------------|--12----10------10-----------------------------------|
-------7h-9p-7-7---------7p-5---------------|------------12-----12p-10----------------------------|
---------------7h-9p-7---------7-5h-7p-5----|--12----------------------10h-12p-10-10h-12p-10------|
--9--------------------------------------7--|------------------------------------------------12\--|
--------------------------------------------|-----------------------------------------------------|


  S S S S S  S   E  S S  S  S E   E     W                   W                   W
-------------------------------------|-------------------|-------------------|-------------------|
--7-------7h-8s-10--8---------8--10--|-------------------|-------------------|-------------------|
----7---7-7h-9s-11----9--------------|-------------------|-------------------|-------------------|
------7-----------------10-----------|-------------------|-------------------|-------------------|
--9------------------------10--------|-------------------|-------------------|-------------------|
--------------------8----------------|-------------------|-------------------|-------------------|


Clean - middle

    Bridge - m.74
    NH            NH     NH    NH       NH         NH            NH          NH
    H             Q      E     E        H          H             H           H
----------------------------<>12--|--<>12-------------------|-------------<>12--------|
--<>7------------------<>7--------|-------------------------|--<>7--------------------|
----------------<>5---------------|--------------<>5--------|-------------------------|
----------------------------------|-------------------------|-------------------------|
----------------------------------|-------------------------|-------------------------|
----------------------------------|-------------------------|-------------------------|


    NH         NH            NH          NH            NH         NH
    H          H             H           H             H          H
------------------------|-------------<>12--------|------------------------|
------------------------|--<>7--------------------|------------------------|
--<>7-------------------|-------------------------|--<>7-------------------|
-------------<>7--------|-------------------------|-------------<>7--------|
------------------------|-------------------------|------------------------|
------------------------|-------------------------|------------------------|


    NH          NH            NH         NH            NH          NH
    H           H             H          H             H           H
-------------<>12--------|------------------------|-------------<>12--------|
--<>7--------------------|------------------------|--<>7--------------------|
-------------------------|--<>7-------------------|-------------------------|
-------------------------|-------------<>7--------|-------------------------|
-------------------------|------------------------|-------------------------|
-------------------------|------------------------|-------------------------|


    NH         NH            NH          NH            NH         NH
    H          H             H           H             H          H
------------------------|-------------<>12--------|------------------------|
------------------------|--<>7--------------------|------------------------|
--<>7-------------------|-------------------------|--<>7-------------------|
-------------<>7--------|-------------------------|-------------<>7--------|
------------------------|-------------------------|------------------------|
------------------------|-------------------------|------------------------|


    NH          NH
    H           H           W                   W                   W
-------------<>12--------|-------------------|-------------------|-------------------|
--<>7--------------------|-------------------|-------------------|-------------------|
-------------------------|-------------------|-------------------|-------------------|
-------------------------|-------------------|-------------------|-------------------|
-------------------------|-------------------|-------------------|-------------------|
-------------------------|-------------------|-------------------|-------------------|


Clean - right

  Bridge - m.74
  Q             S  S E  Q    E  E     S S E  S S E  S S S S S S S S
-----------------------------------|--3----------3------------------|
---------------------7----------7--|----3------3----------3---1-0---|
----------------7--9-7----------7--|------0--L--------2-----2-----2-|
--7-------------7h-L----7----7-----|----------------3---3-----------|
-----------------------------------|--------------------------------|
-----------------------------------|--------------------------------|


  E  S S S  S  E  S S E  S S E     S S E  S S E  S S S S S S S S
------------------2----------2--|-------------3------------------|
--x------3h-5p-3----3------3----|--3--------3----------3-L-1-0---|
-------2--------------2--2------|----0-------------2-----------2-|
--0--0------------0---0--0---0--|----------------3---3-----------|
--------------------------------|--2---2--L----------------------|
--------------------------------|--------------------------------|


  S S S S S  S  E  S S S S S S E     E  S S S S E  S S S S S S E     E  S S S  S E  S E  S  S S E
--2----------------3-----------3--|-------------3-----------------|--------------2--------------3--|
------3---3h-5p-3----3-------3----|-----------3--------1-3-L-1-0--|-----3---3h-5--------------3----|
----2---2--------------5---5------|-------0-L--------2------------|-------2-----------0------------|
--0----------------------5--------|-----0-------------------------|--0-------------------0h-2------|
----------------------------------|--2----------------------------|-----------------3--------------|
----------------------------------|----------------1--------------|--------------------------------|


  E  S S S S E  S S S S S S E     E  S S S  S  E  E  E  E  S  S    E  S S S S E  S S S S S S E
-------------3-----------------|------------------------3-------|--3----------3-----------------|
-----------3--------1-3-L-1-0--|-----3---3h-5p-3-----------3p-0-|--3----------3------1-3-L-1-0--|
-------0-L--------2------------|-------2-------------0----------|-----------0------2------------|
-----0-------------------------|--0-----------------------------|-------0-L---------------------|
--2----------------------------|------------------3-------------|-----2-------------------------|
----------------1--------------|--------------------------------|----------------1--------------|


  E  S S S  S  S  S S S S S S S E     S S E  S S E  H           E.  S S  S E  S S E  E  E
--------------------------5-L------|----------------5--------|-------------2--3------3-----|
-----3---3s-5s-7s-8-L---------8----|--8----------8--8--------|--3-----3h-5-----------5-----|
-------2--------------5---------5--|--7---7--L-7-------------|------2-----------5-------5--|
--0---------------------5----------|----5-----------7--------|--0-------------5---5--------|
-----------------------------------|-------------------------|-----------------------------|
-----------------------------------|-------------------------|-----------------------------|


Duration Legend
---------------
W - whole
H - half
Q - quarter
E - 8th
S - 16th
T - 32nd
X - 64th
. - note dotted
|-n-|  - n-tuplets


Tablature Legend
----------------
L - tied note
x - dead note
g - grace note
(n) - ghost note
> - accentuded note
NH - natural harmonic
AH - artificial harmonic
TH - tapped harmonic
SH - semi harmonic
PH - pitch harmonic
h - hammer on
p - pull off
b - bend
br - bendRelease
pb - preBend
pbr - preBendRelease
brb - bendReleaseBend
\n/ - tremolo bar dip
\n - tremolo bar dive
-/n - tremolo bar Release up
/n\ - tremolo bar inverted dip
/n - tremolo bar return
-\n - tremolo bar Release down
S - shift slide
s - legato slide
/ -  slide into from below or out of upwards
\ -  slide into from above or out of downwards
~ - vibrato
W - wide vibrato
tr - trill
TP - tremolo picking
T - tapping
S - slap
P - pop
< - fade in
^ - brush up
v - brush down

            
            
Suggest correction
Creating personal tab
Creating personal tab
You can edit any tab online and save it as your Personal.

You can edit, replace or remove any tab part or add personal notes – all changes will be seen only by you.

Personal tabs can be accessed anytime from any device, even offline.
Learn more »
comments
print report bad tab
4 comments total. Showing first comments.
0 reply
TexasFury 9,040 Aug 21, 2009 01:41 PM

To the MONGOLOID MORON who accused me of exporting someone else tab while this was in TPA. Hey idiot, I exported (and cleaned up) MY OWN DAMN TAB. Look at this tab right here: http://www.ultimate-guitar.com/tabs/o/ozzy_osbourne/i_dont_know_ver4_guitar_pro.htm

Notice who the creator of that Guitar Pro tab is? ME!!!!! Notice the name "TexasFury"? Learn to read next time.

0 reply
Kirkiscool 2,747 Jul 10, 2011 07:17 AM

I think, you're GOD!

0 reply
poisonousmetal 121 Feb 03, 2012 03:08 PM

How the. nevermind, you fckin kick ass. \m/

guest
You may want to rate the tab now too:
select rating
Wanna post a correction for this tab? Suggest correction