Oops, an error
Loading. Please wait.

I Dont Want To Change The World tab

version 3
version 3

Whole song

Interactive

6,030 views 1 this week
no commentswrite comment
1 2 3 4 5
2 more votes to show rating
add to favorites
×
Save as Personal and add changes to this tab that will be seen only by you. Learn more ›
×
You can save this tab as Personal to edit and correct it or add notes. All changes will be seen only by you. Learn more »
launch autoscroll
font size
0
reset
how to read this tab
guitar tuner
backing track
0:00
0:00
edit
Autoscroll
slow
fast
+/-
esc
set tempo
stop
Author
-------------------------------------------------------------------------------
                  "I Don't Want To Change The World" - Ozzy Osbourne
-------------------------------------------------------------------------------

Tabbed by: [travis]


*This is the live version of this song.
*This is off of "The Ozzman Cometh" CD.

*I wanted to tab out this song since there wasn't a good
 version of this song on this site. Hopefully, you guys 
 like this version. 



Tuning: Half Step Down [Eb Ab Db Gb Bb Eb]



Legend:

... = palm mute
h = hammer on
p = pull of
b = bend
.25 = quarter step
1 = full step
.5 = half step
1.5 = one and a half step 
pb = pre bend
T = tap
* = pinch harmonic
+ = harmonic
/ = slide up
\ = slide down
h/ = pick once
h/p\ = pick once
() = note not picked
__ = hold bend



Guitar 1:
eb|--------------------------------------------------------------|
Bb|--------------------------------------------------------------|
Gb|--------------------------------------------------------------|
Db|--------0h2-------2-----------5-5-7--0h2-----2-----2----------|
Ab|-12\----0----0-0--0--0-0-0-0--3-3-5--0---0-0-0-----0-----10\--|
Eb|------------------------------------------------3-------------|
                ...     .......             ...                 

Guitar 1:
eb|------------------------------------------------------------------------------------|
Bb|------------------------------------------------------------------------------------|
Gb|------------------------------------------------------------------------------------|
Db|-0h2-------2-----------5--5-7--0h2------2----2----------0h2------2-----------5--5-7-|
Ab|-0----0-0--0--0-0-0-0--3--3-5--0---0-0--0----0---3*~~~~-0---0-0--0--0-0-0-0--3--3-5-|
Eb|-------------------------------------------3----------------------------------------|
         ...     .......              ...                      ...     .......

Guitar 1:
                                                                               1
eb|------------------------------------------------------------------------------------|
Bb|--------------------3--3------------------------------------------------------------|
Gb|--------------------2--0------------------------------------------------------------|
Db|-0h2-------2p0------0--x---0h2------2-----------5--5-7--0h2------2p0----------------|
Ab|-0----0-0--0----0-0----3---0----0-0-0--0-0-0-0--3--3-5--0----0-0-0----0-0-3*b---3*~~|
Eb|------------------------------------------------------------------------------------|
         ...       ...             ...    .......               ...      ...


===============================================
"Standing at the crossroads...bring me down."
Guitar 1: For the harmonics, pull off that phrase and lay the side of your pick hand
          over the strings lightly, and slide your hand up the neck lightly
          to make those harmonics. It's a really cool and easy technique to use.
                       +++++++++++++++++++++++++++++++++++
eb|--------------------------------------------------------------|
Bb|--------------------------------------------------------------|
Gb|-----------------x--5p3p0h5p3p0h5p3p0h5p3p0h5p3p0h5p3p0-------|
Db|-----------------x--------------------------------------------|
Ab|-7~~~~~~---------x--------------------------------------/12\--|
Eb|-5~~~~~~------------------------------------------------------|

================================================
Guitar 1:
eb|-----------------------------------------------------------------------------|
Bb|---------------------------------------------3--3----------------------------|
Gb|---------------------------------------------2--0----------------------------|
Db|-0h2-----2-----------5--5-7--0h2-----2p0-----0--x--0h2-----2----------5--5-7-|
Ab|-0---0-0-0--0-0-0-0--3--3-5--0---0-0-0---0-0----3--0---0-0-0--0-0-0-0-3--3-5-|
Eb|-----------------------------------------------------------------------------|
        ...    .......              ...     ...           ...    .......

================================================
Guitar 1:
                         1
eb|---------------------------------------------|
Bb|---------------------------------------------|
Gb|---------------------------------------------|
Db|-0h2------2p0--------------------------------|
Ab|-0----0-0-0----0-0--3*b---3*~~~-----7~~~~~~~-|
Eb|------------------------------------5~~~~~~~-|
         ...      ...      

================================================
"Don't you try accuse me...pity for the shape I'm in."

================================================
Guitar 1:
eb|----------------------------------------------------------------|
Bb|----------------------------------------------------------3--3--|
Gb|----------------------------------------------------------2--0--|
Db|------------0h2-----2-----------5--5-7--0h2------2p0------0--x--|
Ab|--x---------0---0-0-0--0-0-0-0--3--3-5--0----0-0-0----0-0----3--|
Eb|-x----/17\------------------------------------------------------|
                   ...    .......               ...      ...

=================================================
Guitar 1:
eb|--------------------------------------------------------|
Bb|--------------------------------------------------------|
Gb|--------------------------------------------------------|
Db|-0h2-----2-----------5--5-7--0h2-----2p0----------------|
Ab|-0---0-0-0--0-0-0-0--3--3-5--0---0-0-0---0-0--5*~~~~~~~-|
Eb|--------------------------------------------------------|
        ...    .......              ...     ...

=================================================
"I don't want to change the world, I don't want the world to change me."
Chorus 1:
Guitar 1:
                                        .25              1___
eb|-------------------------------------------------------------------------------|
Bb|---------3----3--------3---3-----3---------------------------------------------|
Gb|-2-------2----0--------2---0-----2--------2---------16b--(16)-14---------------|
Db|-2-------0----0--------0---0-----0--------2-------0--------------16-14---------|
Ab|-0-------x----x--------x---x-----x--------0----14----------------------16-14-x-|
Eb|------0--2----3-----0--2---3-----2----3b---------------------------------------|
                                                     .           ..............

==================================================
"I don't want to change the world, I don't want the world to change me."
Guitar 1:
                                            1    1    1    1_____1
eb|----------------------------------------3----3----3----3----------------|
Bb|----------3----3--------3---3----3------6b---6b---6b---6b--(6)b---------|
Gb|-2--------2----0--------2---0----2--------------------------------------|
Db|-2--------0----0--------0---0----0--------------------------------------|
Ab|-0--------x----x--------x---x----x--------------------------------------|
Eb|-------0--2----3-----0--2---3----2---0----------------------------/12\--|

==================================================
Guitar 1:
eb|-----------------------------------------------------|
Bb|-----------------------------------------------3--3--|
Gb|-----------------------------------------------2--0--|
Db|-0h2------2-----------5--5-7--0h2------2p0-----0--x--|
Ab|-0----0-0-0--0-0-0-0--3--3-5--0----0-0-0---0-0----3--|
Eb|-----------------------------------------------------|
         ...    .......               ...     ...

===================================================
Guitar 1:
                                                   1
eb|--------------------------------------------------------|
Bb|--------------------------------------------------------|
Gb|--------------------------------------------------------|
Db|-0h2-----2-----------5--5-7--0h2-----2p0----------------|
Ab|-0---0-0-0--0-0-0-0--3--3-5--0---0-0-0---0-0--3*b---3~~~|
Eb|--------------------------------------------------------|

===================================================
"Tell me I'm a sinner...news for you."
Guitar 1:
eb|---------------------------------------------------------|
Bb|---------------------------------------------------------|
Gb|--------------------------------------------------5---5--|
Db|-0h2----------------------------------------------5---5--|
Ab|-0---0-0-0-0-0-0-0-0-0-0-0-0-0-0-0-0-0-0-0-0-0-0----0----|
Eb|---------------------------------------------------------|
        ...........................................    .

====================================================
"I spoke to God..don't like you."
Guitar 1:
eb|------------------------------------------------|
Bb|-----------------------------------------3---3--|
Gb|-----------------------------------------2---0--|
Db|-0h2-------------------------/14~~~~~~~~~0---x--|
Ab|-0---0-0-0-0-0-0-0-0-0-0-0-0-----------------3--|
Eb|------------------------------------------------|
        ...........

=====================================================
"You're telling...original sin."
Guitar 1:
eb|--------------------------------------------------|
Bb|---------------------------------------------3--3-|
Gb|---------------------------------------------2--0-|
Db|-0h2-----2----------5--5-7---0h2-----2p0-----0--x-|
Ab|-0---0-0-0-0-0-0-0--3--3-5---0---0-0-0---0-0----3-|
Eb|--------------------------------------------------|
        ...   .......               ...     ...

=====================================================
"He says he knows...ever know him."
Guitar 1:
eb|--------------------------------------------------------|
Bb|--------------------------------------------------------|
Gb|----------------------------------------------5*~~~~~~~~|
Db|-0h2-----2-----------5--5-7---0h2-----2p0---------------|
Ab|-0---0-0-0--0-0-0-0--3--3-5---0---0-0-0---0-0-----------|
Eb|--------------------------------------------------------|

======================================================
"I don't want to...the world to change me"
Chorus 2:
Guitar 1:
                                          .25
eb|------------------------------------------------|
Bb|---------3----3---------3----3----3-------------|
Gb|-2-------2----0---------2----0----2----------2--|
Db|-2-------0----0---------0----0----0----------2--|
Ab|-0-------x----x---------x----x----x----------0--|
Eb|------0--2----3-------0-2----3----2-----3b------|

=======================================================
Guitar 1:
          1____     
eb|-----------------------------------|
Bb|-----17----------------------------|
Gb|-----16b---(16)--14----------------|
Db|---x----------------16-14-------x--|
Ab|--x-----------------------16-14-x--|
Eb|-x---------------------------------|
                    ..............

=======================================================
"I don't want...world to change me."
Guitar 1:
                                      .25        1         1        1____
eb|----------------------------------------------------------------------|
Bb|----------3---3--------3---3----3-------------------------------------|
Gb|-2--------2---0--------2---0----2-------2---------2---------2---------|
Db|-2--------0---0--------0---0----0-------2---------2---------2---------|
Ab|-0--------x---x--------x---x----x-------0---------0---------0---------|
Eb|-------0--2---3-----0--2---3----2---3b------3*b~~~----3*b~~~----3b----|

=======================================================
"You know it ain't easy...I really don't care."
Guitar 1:
eb|---------------------------------------------------------|
Bb|---------------------------------------------------------|
Gb|---------------------------------------------------4-----|
Db|---------------------------------------------------4--7--| x4
Ab|----4-----4--------4-----4--4-----4-----4--4--2p0--2--7--|
Eb|-0--2--0--2--0--0--2--0--2--2--0--2--0--2--2----------5--|
    ...........................................

=======================================================
Guitar Solo:
Guitar 1:
                       1___                        1___               1           1
eb|-----3-----3-------5b--(5)-3---5---3--\15-----------------------------15-----------------|
Bb|-4h5---4h5---4h5p4-----------5---5--------15-----------------------------15--------------|
Gb|---------------------------------------------14pb--(14)-12----12-14b--------14pb---14~~~~|
Db|-----------------------------------------------------------14----------------------------|
Ab|-----------------------------------------------------------------------------------------|
Eb|-----------------------------------------------------------------------------------------|

Guitar 1:
      1       1       1       1       1___   1                                   1
eb|------17------17------17------17-17--------------17----16----15----14----15-------------|
Bb|-17b-----17b-----17b-----17b-----17b--(17)b---14----14----14----14----14----------------|
Gb|----------------------------------------------------------------------------16b---14~~~~|
Db|----------------------------------------------------------------------------------------|
Ab|----------------------------------------------------------------------------------------|
Eb|----------------------------------------------------------------------------------------|

Guitar 1:
                                                   1___             1              1
eb|-----------------------------------------------3b--(3)-------------------------------|
Bb|----------------------------------3--3-4-5-3-------------------11b------------14b~~~~|
Gb|-0-1-2-0-1-2--/5*~~~--2-3-4-2-3-4------------4---------/10-9-8------12-11-10---------|
Db|-------------------------------------------------------------------------------------|
Ab|-------------------------------------------------------------------------------------|
Eb|-------------------------------------------------------------------------------------|
    ...........          ...........    .........          ......      ........

Guitar 1: bend the 21st fret with the pick hand, while still fretting the 14th fret
          with your fret hand. Then slide your fret hand down to the 4th fret while
          still holding the bend with your pick hand, and then release the tap and bend
          and pull off the 4p2p0 phrase.
       1____        T ______.5______1________________ 
eb|-----------------------------------------------------------------|
Bb|-----------------------------------------------------------------|
Gb|-16pb---(16)p14--21b--(21)b--(21)b---(21)p4------(4)p2p0-2~~~~~~~|
Db|-----------------------------------------------------------------|
Ab|-----------------------------------------------------------------|
Eb|-----------------------------------------------------------------|

Guitar 1: The harmonics part is the same as what you did earlier on this song.
     1     1     1     1_________  +++++++++++++++++++++++++++++   1   1____   1__
eb|---------------------------------------------------------------2---2~~~~~--2---|
Bb|-5-----5-----5-----3~~~~~~~~~~---------------------------------5b--5b~~~~--5b--|
Gb|-7b----7b----7b----5b~~~~~~~~~--5p3p0h5p3p0h5p3p0h5p3p0h5p3p0------------------|
Db|-------------------------------------------------------------------------------|
Ab|-------------------------------------------------------------------------------|
Eb|-------------------------------------------------------------------------------|

Guitar 1:
                   1   1   1   1   1__________  1               
eb|-2----------------------------------------------------17-17p15-------------17-17p15----|
Bb|-5-------------5---5---5---5---3~~~~~~~~~~~14b--16-17----------17-17-15-17----------17-|
Gb|------5*~~~~~~~7b--7b--7b--7b--5b~~~~~~~~~~--------------------------------------------|
Db|---------------------------------------------------------------------------------------|
Ab|---------------------------------------------------------------------------------------|
Eb|---------------------------------------------------------------------------------------|

Guitar 1:
                                                                                                .5
                                     .5          T                                 .5           .5
eb|------17p15----------------17----------15-17-21p17-------21-17-------18-22-18-----18-22-18-22b|
Bb|15-17-------17-17-17-15-17---17-16b-17-------------20-20-------21-21----------22b----------21b|
Gb|----------------------------------------------------------------------------------------------|
Db|----------------------------------------------------------------------------------------------|
Ab|----------------------------------------------------------------------------------------------|
Eb|----------------------------------------------------------------------------------------------|

End of Guitar Solo.
============================================================
"Don't tell me...gone away"
Guitar 1:
                                                                  .5
eb|--------------------------------------5-------------------------------------|
Bb|---------------------3-----------3---------------3-----2------------------2-|
Gb|-2~~~~-------------------0------------------2-------2-------2-----------2---|
Db|-2~~~~---2-4h/5--5-5-------0---4---4-----4----------------------------2-----|
Ab|-0~~~~-----------------------------------------0---------------3b---0-------|
Eb|----------------------------------------------------------------------------|

=============================================================
"So far away...said there's a"
Guitar 1:
eb|--------------------------5------------0---------------------------------------------|
Bb|---------------3--------3----3----------------------------------2-------------3------|
Gb|-2--------------------0--------0--4h/6---6p\4-2--------------------2----0-0-0----0-0-|
Db|---2-4h/5--5-5------4---------------------------2h4-2------2--2------2---------------|
Ab|------------------------------------------------------4-2--0-------------------------|
Eb|-------------------------------------------------------------------------------------|

=============================================================
"Light up ahead...hope and pray"
Guitar 1:
eb|-------5------------------------------------------------------------------|
Bb|-----3----3-------3---2-----------------2--------------------3----------3-|
Gb|---0--------0-------2------2----------2-----2----------0--0-------0--0----|
Db|-4----------------------------------2---------2--4h/5---------------------|
Ab|----------------0-------------3b--0---------------------------------------|
Eb|--------------------------------------------------------------------------|

============================================================
"I'm here to stay. Yeah"
Guitar 1:
                      1________________
                     .5________________
eb|--------5--------12b~~~~~~~~~~~~~~~~|
Bb|-----3-------x---12b~~~~~~~~~~~~~~~~|
Gb|---0---------x----------------------|
Db|-4----------------------------------|
Ab|------------------------------------|
Eb|------------------------------------|

=============================================================
Guitar 1:
eb|-------------------------------------------------------------------------------|
Bb|----------------------------------------------3--3-----------------------------|
Gb|----------------------------------------------2--0-----------------------------|
Db|-0h2-----2-----------5--5-7---0h2-----2p0-----0--x--0h2-----2-----------5--5-7-|
Ab|-0---0-0-0--0-0-0-0--3--3-5---0---0-0-0---0-0----3--0---0-0-0--0-0-0-0--3--3-5-|
Eb|-------------------------------------------------------------------------------|
        ...    .......               ...     ...           ...    .......

=============================================================
Guitar 1:
                                                    1
eb|----------------------------------------------------------|
Bb|----------------------------------------------------------|
Gb|----------------------------------------------------------|
Db|-0h2-----2-----------5--5-7--0h2-----2p0------------------|
Ab|-0---0-0-0--0-0-0-0--3--3-5--0---0-0-0---0-0--3*pb~~-3*~~-|
Eb|----------------------------------------------------------|
        ...    .......              ...     ...

==============================================================
"Tell me I'm a sinner...don't like you"
Guitar 1: The x's are a pickslide.
eb|---------------------------------------------------------------------|
Bb|---------------------------------------------------------------------|
Gb|---------------------------------------------------------------------|
Db|---------------------------------------------------------------------|
Ab|-7~~~~~~-----x\x\x\x\x\x\x--0h3p0h3p0h3p0h3p0h3p0h3------------------|
Eb|-5~~~~~~-----x\x\x\x\x\x\x-------------------------------------/15\--|

==============================================================
"Don't you try accuse...need your pity for the shape"
Guitar 1:
eb|-------------------------------------------------------------------------------|
Bb|---------------------------------------------3--3------------------------------|
Gb|---------------------------------------------2--0------------------------------|
Db|-0h2-----2-----------5--5-7--0h2-----2p0-----0--x---0h2-----2-----------5--5-7-|
Ab|-0---0-0-0--0-0-0-0--3--3-5--0---0-0-0---0-0----3---0---0-0-0--0-0-0-0--3--3-5-|
Eb|-------------------------------------------------------------------------------|
        ...    .......              ...     ...            ...    .......

==============================================================
"I'm in."
Guitar 1:
eb|-------------------------|
Bb|-------------------------|
Gb|-----------------5*~~~~~~|
Db|-0h2-----2p0-------------|
Ab|-0---0-0-0---0-0---------|
Eb|-------------------------|
        ...     ...

===============================================================
"I don't want to...world to change me"
Chorus 3:
Guitar 1:
                                          .25
eb|------------------------------------------------|
Bb|---------3----3---------3----3----3-------------|
Gb|-2-------2----0---------2----0----2----------2--|
Db|-2-------0----0---------0----0----0----------2--|
Ab|-0-------x----x---------x----x----x----------0--|
Eb|------0--2----3-------0-2----3----2-----3b------|

=======================================================
Guitar 1:
          1____     
eb|-----------------------------------|
Bb|-----17----------------------------|
Gb|-----16b---(16)--14----------------|
Db|---x----------------16-14-------x--|
Ab|--x-----------------------16-14-x--|
Eb|-x---------------------------------|
                    ..............

========================================================
"I don't want to change the world..."
Guitar 1:
                                          .25
eb|------------------------------------------------|
Bb|---------3----3---------3----3----3-------------|
Gb|-2-------2----0---------2----0----2----------2--|
Db|-2-------0----0---------0----0----0----------2--|
Ab|-0-------x----x---------x----x----x----------0--|
Eb|------0--2----3-------0-2----3----2-----3b------|

=========================================================
"I don't want...I don't want to"
Guitar 1:
eb|-----------------------------------------------------------|
Bb|-3----3-------------------------------------------------3--|
Gb|-0----2----4p2h4p2h4p2h4p2h4p2h4p2h4h6p4p2h4h6\--2------2--|
Db|-0----0------------------------------------------2------0--|
Ab|-x----x------------------------------------------0------x--|
Eb|-3----2----------------------------------------------0--2--|

=========================================================
"Change the world...to change me"
Guitar 1:
eb|----------------------------------------------------------------------------|
Bb|-3--------3----3-----3------------------------------------------------------|
Gb|-0--------2----0-----2------4p2h4p2h4p2h4p2h4p2h4p2h4-----------------------|
Db|-0--------0----0-----0--------------------------------2h4p2h4p2h4p2---------|
Ab|-x--------x----x-----x----------------------------------------------3p2p0---|
Eb|-3-----0--2----3-----2----------------------------------------------------3-|

==========================================================
"I don't wanna...want the world to change me"
Guitar 1:
eb|------------------------------------------------------------------------------------|
Bb|----------3----3---------3----3------3----------------------------------------------|
Gb|-2--------2----0---------2----0------2---2h4p2h4p2h4p2h4p2h4p2h4p2h4p2h4p2h4p2h4p2h4|
Db|-2--------0----0---------0----0------0----------------------------------------------|
Ab|-0--------x----x---------x----x------x----------------------------------------------|
Eb|------0---2----3------0--2----3------2----------------------------------------------|

==========================================================
Ending:
Guitar 1:
eb|---------------------------------------------------|
Bb|---------------------------------------------3--3--|
Gb|---------------------------------------------2--0--|
Db|-0h2-----2-----------5--5-7--0h2-----2p0-----0--x--|
Ab|-0---0-0-0--0-0-0-0--3--3-5--0---0-0-0---0-0----3--|
Eb|---------------------------------------------------|
        ...    .......              ...     ...

===========================================================
Guitar 1:
                                                    1
eb|----------------------------------------------------------|
Bb|----------------------------------------------------------|
Gb|----------------------------------------------------------|
Db|-0h2-----2-----------5--5-7---0h2-----2p0-----------------|
Ab|-0---0-0-0--0-0-0-0--3--3-5---0---0-0-0---0-0--3*b---3*~~~|
Eb|----------------------------------------------------------|
        ...    .......               ...     ...


Please rate and comment my tab.
[travis]





===================================================

            
            
Suggest correction
Creating personal tab
Creating personal tab
You can edit any tab online and save it as your Personal.

You can edit, replace or remove any tab part or add personal notes – all changes will be seen only by you.

Personal tabs can be accessed anytime from any device, even offline.
Learn more »
Give kudos to tab author, rate the tab!
1 2 3 4 5
comments
print report bad tab
guest
You may want to rate the tab now too:
select rating
Wanna post a correction for this tab? Suggest correction