Oops, an error
Loading. Please wait.

Not Going Away tab

version 1
version 1

Whole song

Interactive

10,310 views 6 this week
no commentswrite comment
1 2 3 4 5
2 more votes to show rating
add to favorites
×
Save as Personal and add changes to this tab that will be seen only by you. Learn more ›
×
You can save this tab as Personal to edit and correct it or add notes. All changes will be seen only by you. Learn more »
launch autoscroll
font size
0
reset
how to read this tab
guitar tuner
edit
Autoscroll
slow
fast
+/-
esc
set tempo
stop
not going away
by:ozzy ozbourne
Tuning:Drop D
OPENING
|-----------------------------------------------------|
|-----------------------------------------------------|
|-----------------------------------------------------|
|--00-350-0-350-0-350-5------00-350-0-350-0-350-5-----|
|--00-350-0-350-0-350-3-3v~--00-350-0-350-0-350-3-3PH~|
|--00-350-0-350-0-350--------00-350-0-350-0-350-------|
verse-this is how i play it and it sounds fine
|------------------------------------|
|------------------------------------|
|------------------------------------|
|--00-35-00-35-00-35-0---------------|
|--00-35-00-35-00-35-0-3h5-3---------|
|--00-35-00-35-00-35-0------6--5-3PH-|
      ..    ..    ..
pre-chorus the beat is 4/4 i just put them close together to save space
|---------------------------------------------------------|
|---------------------------------------------------------|
|---------------------------------------------------------|
|-77777777-55555555-33333333-5555-PS~~~~~~~~~~~~~~~~~~~~~-|
|-77777777-55555555-33333333-5555-------------------------|
|-77777777-55555555-33333333-5555-------------------------|
chorus-same as intro-i havent finished the solo yet but its just a lot of licks from the 
put together with some bends and is pretty easy to fake.
TAB LEGEND
PH=pick or pinch harmonic
nhn=hammer on to next note
v~-slight vibrato
.=palm note the note above the dot
PS=pick slide on that string until guiatr comes back in

            
            
Suggest correction
Creating personal tab
Creating personal tab
You can edit any tab online and save it as your Personal.

You can edit, replace or remove any tab part or add personal notes – all changes will be seen only by you.

Personal tabs can be accessed anytime from any device, even offline.
Learn more »
Give kudos to tab author, rate the tab!
1 2 3 4 5
comments
print report bad tab
guest
Wanna post a correction for this tab? Suggest correction