Oops, an error
Loading. Please wait.

I And Identify tab

version 1
version 1

Whole song

Interactive

by P.O.D.
907 views 1 this week
2 commentsread comments
1 2 3 4 5
3 more votes to show rating
add to favorites
×
Save as Personal and add changes to this tab that will be seen only by you. Learn more ›
×
You can save this tab as Personal to edit and correct it or add notes. All changes will be seen only by you. Learn more »
launch autoscroll
font size
0
reset
how to read this tab
guitar tuner
edit
Autoscroll
slow
fast
+/-
esc
set tempo
stop
Author
Unregistered
"I and Identify"
POD

Tabber: Kenny Burgess 
Email: Kenny111887@aol.com

I cant believe no one has tabbed this song.

tuning: CGCFAD

Intro/Bridge

D:-------------------------|
A:-------------------------|
F:------------------6-7-6--|
C:--4-0--4-0-0-4-----------|
G:--4-0--4-0-0-4----4/5\4--|
C:--4-0--4-0-0-4--0--------|

D:-------|
A:-------|
F:-------|
C:--7-0--|
G:--7-0--|
C:--7-0--|

Verse

D:--------------------------|
A:--------------------------|
F:--------------------6---6-|
C:--7--0--6-0-4-7--0--x---x-|
G:--7--0--6-0-4-7--0--4---4-|
C:--7--0--6-0-4-7--0----0---|

D:--------------------------|
A:--------------------------|
F:--------------------------|
C:--7--0--6-0-4-7--0--------|
G:--7--0--6-0-4-7--0--------|
C:--7--0--6-0-4-7--0--------|

Chorus

D:--------------------------|
A:--------------------------|
F:--------------------------|
C:--4-4-4-6-6-6-0-0-0-2-2-2-|
G:--4-4-4-------0-0-0-------|
C:--4-4-4-------0-0-0-------| x2

D:--------------------------|
A:--------------------------|
F:--------------------------|
C:--4-4-4-6-6-6-0-0-0-7-7-7-|
G:--4-4-4-------0-0-0-------|
C:--4-4-4-------0-0-0-------|

D:--------------------------|
A:--------------------------|
F:--------------------------|
C:--3-3-3--1-1-1--0---------|
G:--3-3-3--1-1-1--0---------|
C:--3-3-3--1-1-1--0---------|

            
            
Suggest correction
Creating personal tab
Creating personal tab
You can edit any tab online and save it as your Personal.

You can edit, replace or remove any tab part or add personal notes – all changes will be seen only by you.

Personal tabs can be accessed anytime from any device, even offline.
Learn more »
Give kudos to tab author, rate the tab!
1 2 3 4 5
comments
print report bad tab
2 comments total.
0 reply
365_days_gone 4,297 Nov 14, 2006 01:29 PM

aww come on! I want to do a Guitar Pro tab for this song. someone tab the chorus!!

0 reply
365_days_gone 4,297 Dec 27, 2006 04:11 PM

It doesn't sound right in Drop C. Sounds better -- more accurate -- in Drop D.

guest
Wanna post a correction for this tab? Suggest correction