Oops, an error
Loading. Please wait.

Guerrero De Tu Cruz tab

144 views 1 this week
no commentswrite comment
1 2 3 4 5
3 more votes to show rating
add to favorites
×
Save as Personal and add changes to this tab that will be seen only by you. Learn more ›
×
You can save this tab as Personal to edit and correct it or add notes. All changes will be seen only by you. Learn more »
launch autoscroll
font size
0
reset
how to read this tab
guitar tuner
edit
Autoscroll
slow
fast
+/-
esc
set tempo
stop
bueno chicos aqui les dejo el solo de esta excelente canción de Pablo Olivares
la saqué hace 3 semanas, espero que les guste y les sirva... DLB :D

E--------------------------------------------------------------------------
B--7s11-12-9--------------------------------9-7-9-6-9---7---7--------------
G------------8----------------------------------------8---6----------------
D--------------6-9-8-6----------------------------------------8s9-8-9------
A----------------------6-6-6-6-9-8-8-8-8-8---------------------------------
E--------------------------------------------------------------------------

E----------------------------------------------------------------14----13--
B---------------------12s14-12s14-12~----12-14-14s16-12h14-12h14----12-----
G-------8-11-10b(x3)------------------13-----------------------------------
D--8-9---------------------------------------------------------------------
A--------------------------------------------------------------------------
E--------------------------------------------------------------------------

E-----13-------------------------------------------------16-14-16-16-------
B--12----14s16-14-12----12h14-12-12----12-14-14s16-12h14-------------------
G--------------------13-------------13-------------------------------------
D--------------------------------------------------------------------------
A--------------------------------------------------------------------------
E--------------------------------------------------------------------------

bueno Chicos, aqui esta la tab del solo, como ven esta
supremamente sencillo, espero que les haya servido
y gustado, Dios los bendiga mucho

            
            
Suggest correction
Creating personal tab
Creating personal tab
You can edit any tab online and save it as your Personal.

You can edit, replace or remove any tab part or add personal notes – all changes will be seen only by you.

Personal tabs can be accessed anytime from any device, even offline.
Learn more »
Give kudos to tab author, rate the tab!
1 2 3 4 5
comments
print report bad tab
guest
Wanna post a correction for this tab? Suggest correction