Oops, an error
Loading. Please wait.

Lose My Mind Acoustic tab

400 views 1 this week
1 commentread comment
1 2 3 4 5
2 more votes to show rating
add to favorites
×
Save as Personal and add changes to this tab that will be seen only by you. Learn more ›
×
You can save this tab as Personal to edit and correct it or add notes. All changes will be seen only by you. Learn more »
launch autoscroll
font size
0
reset
how to read this tab
guitar tuner
edit
Autoscroll
slow
fast
+/-
esc
set tempo
stop
Author
Difficulty
Artist: Pacific Air
Song: Lose My Mind
Album: Stop Talking
Tuning: Standard

e |---------------------------------------------------------------|
B |--9--8---------------------------9--8--------------8--------8--|
G |-------9--7--7-7-9-7--7-7-9--5---------9--7--7-7-9---7-7--9----|
D |---------------------------------------------------------------|
A |---------------------------------------------------------------|     
E |---------------------------------------------------------------|

e |--1----0----0-----------|
B |--1----1----1-----------|
G |--2----2----0-----------|
D |--3----2----2-----------|
A |--3----0----3-----------|    
E |--1----x----x-----------|


I've been thinking about the ocean
And how cold it's been 
I could steal my father's sweater
But I'm way too thin to be only one in

I know I want to take a bath
Without the water turning black
I know I want to be a man
Oh, before, oh, before, before I lose my mind

Chorus

e |---------------------------------------------------------------|
B |--9--8---------------------------9--8--------------8--------8--|
G |-------9--7--7-7-9-7--7-7-9--5---------9--7--7-7-9---7-7--9----|
D |---------------------------------------------------------------|
A |---------------------------------------------------------------|     
E |---------------------------------------------------------------|

e |--1----0----0-----------|
B |--1----1----1-----------|
G |--2----2----0-----------|
D |--3----2----2-----------|
A |--3----0----3-----------|    
E |--1----x----x-----------|

Before I lose my mind
Before I lose my mind
Before I lose my mind

Verse 2

I've been thinking about my future
And how cold it's been
When I look into a mirror

I can only see my reflection
I know I want to take a bath
Without my footsteps turning black
I know I want to take a chance
Oh, before, oh, before, before I lose my mind

Bridge

e |---0------0------------|
B |---0------1------------|
G |---0------2------------|
D |---2------2------------|
A |---2------0------------|     
E |---x------x------------|

Until I reach my goal 
I quit my job, I've got nowhere else to go

Chorus (x2)


            
            
Suggest correction
Creating personal tab
Creating personal tab
You can edit any tab online and save it as your Personal.

You can edit, replace or remove any tab part or add personal notes – all changes will be seen only by you.

Personal tabs can be accessed anytime from any device, even offline.
Learn more »
Give kudos to tab author, rate the tab!
1 2 3 4 5
comments
print report bad tab
1 comment total.
0 reply
uhu-kleber97 10 Mar 15, 2015 09:55 AM

Chorus should be

e |---------------------------------------------------------------|
B |-10--8--------------------------10--8--------------8--------8--|
G |-------9--7--5-7-5-7-5-7-9--5---------9--7--5-7-5---5-7--9-----|
D |---------------------------------------------------------------|
A |---------------------------------------------------------------|
E |---------------------------------------------------------------|

guest
You may want to rate the tab now too:
select rating
Wanna post a correction for this tab? Suggest correction