Oops, an error
Loading. Please wait.

Planetas chords

47 views 1 this week
no commentswrite comment
1 2 3 4 5
3 more votes to show rating
add to favorites
×
Save as Personal and add changes to this tab that will be seen only by you. Learn more ›
×
You can save this tab as Personal to edit and correct it or add notes. All changes will be seen only by you. Learn more »
launch autoscroll
font size
0
reset
transpose
0
reset
simplify chords
display chords
guitar tuner
edit
Autoscroll
slow
fast
+/-
esc
set tempo
stop
Strumming
There is no strumming pattern for this song yet. and get +5 IQ
Planetas
            C                   F                   C
E||----------------------|---------------------|----------------------|
B||-----------1----------|----------1----------|-----------1----------|
G||-----0----------0-----|---------------2-----|-----0----------0-----|
D||--------2----------2--|--3---------------3--|--------2----------2--|
A||--3-------------------|-------3-------------|--3-------------------|
E||----------------------|---------------------|----------------------|


      C               F
--------------|-------------------||
-----------1--|-----------1-------||
--------0-----|--------2----------||
-----2--------|-----3-------------||
--3-----------|--3----------3-----||
--------------|-------------------||

          G          G6
|-------------|------------------||
|-------------|------------------||
|--------4----|-------4----------||
|-----------5-|-3--------5-------||
|-----5-------|----3-------5-----||
|--3----------|------------------||

F? -- Si se toca con acordes se puede poner un Fa y suena bien o 333433 que no sé qué es.

Los acordes son los siguientes:

 [(CF)x4 (GF)x4]x2

 [C G Am Em F D G F] x2

 C                  F
Esta es la brava historia,
 C                  F
de dos personas locas,
 C                  F
personas por cruzarse
 C                  F
y locas por juntarse.

 G            G7
Y cuando se subieron,
 G            G7
al carro del te quiero
 G            G7
aquellas dos palabras,
 G            G7
ya eran tejado y casa.

 C                  F
Mis ojos despejados,
 C                  F
te quieren dar despacio,
 C                  F
las flores más despiertas,
 C                  F
que hay en mi cabeza.

 G            G7
Te viene bien las doce,
 G            G7
de dia o de noche,
 G            G7
delante del museo,
 G            G7
planetas en el pecho.

  C            G
Tu voz es mi columpio,
Am            Em
tu risa todo el parque.
F            D
Saludame a Neptuno,
G            F
saludame a Saturno.

  C            G
Tus ojos son tan grandes,
 Am            Em
que nunca se hace tarde,
 F            D
si todo es inseguro,
 G            F            C G C
flotando en ti, lo dudo.


Llegué un poco tarde,
y tu no te enfadaste,
mientras me acercaba,
el sol, te subrayaba.

Y luego en el museo,
entramos en el juego,
de comentar los cuadros,
con aire de enterados.

La cama muy pequeña,
para que no se pierdan,
las llaves del abrazo,
ni el sueño enlazado.

Te viene bien las doce,
de dia o de noche,
delante del museo,
planetas en el pecho.

Tu voz es mi columpio,
tu risa todo el parque.
Saludame a Neptuno,
saludame a Saturno.

Tus ojos son tan grandes,
que nunca se hace tarde,
si todo es inseguro,
flotando en ti, lo dudo

            
            
Suggest correction
Creating personal tab
Creating personal tab
You can edit any tab online and save it as your Personal.

You can edit, replace or remove any tab part or add personal notes – all changes will be seen only by you.

Personal tabs can be accessed anytime from any device, even offline.
Learn more »
Give kudos to tab author, rate the tab!
1 2 3 4 5
comments
print report bad tab
guest
Wanna post a correction for this tab? Suggest correction